ISO-10303-21;
HEADER;
FILE_DESCRIPTION (( 'STEP AP203' ),
    '1' );
FILE_NAME ('1.21.F03.STEP',
    '2019-05-29T11:20:44',
    ( '' ),
    ( '' ),
    'SwSTEP 2.0',
    'SolidWorks 2018',
    '' );
FILE_SCHEMA (( 'CONFIG_CONTROL_DESIGN' ));
ENDSEC;

DATA;
#1 = ADVANCED_FACE ( 'NONE', ( #47 ), #176, .F. ) ;
#2 = EDGE_CURVE ( 'NONE', #154, #112, #311, .T. ) ;
#3 = VECTOR ( 'NONE', #220, 1000.000000000000000 ) ;
#4 = CARTESIAN_POINT ( 'NONE',  ( 10.00000000000000178, -4.000000000000000000, 100.0000000000000000 ) ) ;
#5 = CARTESIAN_POINT ( 'NONE',  ( -9.999999999999998224, -4.000000000000000000, 100.0000000000000000 ) ) ;
#6 = EDGE_LOOP ( 'NONE', ( #137, #90, #197, #251 ) ) ;
#7 = ADVANCED_FACE ( 'NONE', ( #268 ), #203, .F. ) ;
#8 = AXIS2_PLACEMENT_3D ( 'NONE', #91, #184, #210 ) ;
#9 = CARTESIAN_POINT ( 'NONE',  ( 10.00000000000000178, -4.000000000000000000, 100.0000000000000000 ) ) ;
#10 = DIRECTION ( 'NONE',  ( -1.000000000000000000, -0.0000000000000000000, -0.0000000000000000000 ) ) ;
#11 = UNCERTAINTY_MEASURE_WITH_UNIT (LENGTH_MEASURE( 1.000000000000000082E-05 ), #144, 'distance_accuracy_value', 'NONE');
#12 = CARTESIAN_POINT ( 'NONE',  ( 0.0000000000000000000, 4.000000000000000000, 50.00000000000000000 ) ) ;
#13 = VECTOR ( 'NONE', #269, 1000.000000000000000 ) ;
#14 = DIRECTION ( 'NONE',  ( -0.0000000000000000000, 1.000000000000000000, -0.0000000000000000000 ) ) ;
#15 = LINE ( 'NONE', #79, #131 ) ;
#16 = ORIENTED_EDGE ( 'NONE', *, *, #198, .F. ) ;
#17 = APPROVAL_ROLE ( '' ) ;
#18 = DIRECTION ( 'NONE',  ( -0.0000000000000000000, 1.000000000000000000, -0.0000000000000000000 ) ) ;
#19 = DATE_TIME_ROLE ( 'classification_date' ) ;
#20 = PERSON_AND_ORGANIZATION ( #216, #52 ) ;
#21 = AXIS2_PLACEMENT_3D ( 'NONE', #36, #62, #164 ) ;
#22 = EDGE_CURVE ( 'NONE', #271, #261, #275, .T. ) ;
#23 = LINE ( 'NONE', #55, #173 ) ;
#24 = ORIENTED_EDGE ( 'NONE', *, *, #133, .F. ) ;
#25 = VECTOR ( 'NONE', #293, 1000.000000000000000 ) ;
#26 = AXIS2_PLACEMENT_3D ( 'NONE', #166, #98, #300 ) ;
#27 = CARTESIAN_POINT ( 'NONE',  ( 10.00000000000000178, 4.000000000000000000, 100.0000000000000000 ) ) ;
#28 = COORDINATED_UNIVERSAL_TIME_OFFSET ( 2, 0, .AHEAD. ) ;
#29 = ORIENTED_EDGE ( 'NONE', *, *, #289, .F. ) ;
#30 = CARTESIAN_POINT ( 'NONE',  ( 5.204748896376243797E-16, -4.000000000000000000, 45.75000000000000711 ) ) ;
#31 = LINE ( 'NONE', #27, #13 ) ;
#32 = DIRECTION ( 'NONE',  ( 1.000000000000000000, 0.0000000000000000000, 0.0000000000000000000 ) ) ;
#33 = CC_DESIGN_APPROVAL ( #202, ( #237 ) ) ;
#34 = DIRECTION ( 'NONE',  ( 0.0000000000000000000, 0.0000000000000000000, 1.000000000000000000 ) ) ;
#35 = VECTOR ( 'NONE', #10, 1000.000000000000000 ) ;
#36 = CARTESIAN_POINT ( 'NONE',  ( 0.0000000000000000000, 4.000000000000000000, 50.00000000000000000 ) ) ;
#37 = DATE_AND_TIME ( #159, #229 ) ;
#38 =( NAMED_UNIT ( * ) PLANE_ANGLE_UNIT ( ) SI_UNIT ( $, .RADIAN. ) );
#39 = VERTEX_POINT ( 'NONE', #141 ) ;
#40 = DIRECTION ( 'NONE',  ( -0.0000000000000000000, -0.0000000000000000000, -1.000000000000000000 ) ) ;
#41 = PERSON_AND_ORGANIZATION ( #216, #52 ) ;
#42 = EDGE_LOOP ( 'NONE', ( #278, #24, #161, #228 ) ) ;
#43 = CC_DESIGN_SECURITY_CLASSIFICATION ( #193, ( #237 ) ) ;
#44 = FACE_OUTER_BOUND ( 'NONE', #167, .T. ) ;
#45 = COORDINATED_UNIVERSAL_TIME_OFFSET ( 2, 0, .AHEAD. ) ;
#46 = VERTEX_POINT ( 'NONE', #9 ) ;
#47 = FACE_OUTER_BOUND ( 'NONE', #57, .T. ) ;
#48 = CARTESIAN_POINT ( 'NONE',  ( 0.0000000000000000000, 0.0000000000000000000, 100.0000000000000000 ) ) ;
#49 = AXIS2_PLACEMENT_3D ( 'NONE', #4, #239, #54 ) ;
#50 = EDGE_LOOP ( 'NONE', ( #291, #16, #281, #230 ) ) ;
#51 = CARTESIAN_POINT ( 'NONE',  ( 0.0000000000000000000, -4.000000000000000000, 50.00000000000000000 ) ) ;
#52 = ORGANIZATION ( 'UNSPECIFIED', 'UNSPECIFIED', '' ) ;
#53 = CARTESIAN_POINT ( 'NONE',  ( -9.999999999999998224, -4.000000000000000000, 100.0000000000000000 ) ) ;
#54 = DIRECTION ( 'NONE',  ( 0.0000000000000000000, 0.0000000000000000000, 1.000000000000000000 ) ) ;
#55 = CARTESIAN_POINT ( 'NONE',  ( -9.999999999999998224, -4.000000000000000000, 100.0000000000000000 ) ) ;
#56 = DATE_AND_TIME ( #114, #127 ) ;
#57 = EDGE_LOOP ( 'NONE', ( #240, #104, #227, #201 ) ) ;
#58 = CYLINDRICAL_SURFACE ( 'NONE', #179, 4.249999999999996447 ) ;
#59 = DIRECTION ( 'NONE',  ( 0.0000000000000000000, 0.0000000000000000000, 1.000000000000000000 ) ) ;
#60 = VERTEX_POINT ( 'NONE', #158 ) ;
#61 = ORIENTED_EDGE ( 'NONE', *, *, #303, .F. ) ;
#62 = DIRECTION ( 'NONE',  ( -0.0000000000000000000, 1.000000000000000000, -0.0000000000000000000 ) ) ;
#63 = MANIFOLD_SOLID_BREP ( 'M10 Tapped Hole1', #84 ) ;
#64 = COORDINATED_UNIVERSAL_TIME_OFFSET ( 2, 0, .AHEAD. ) ;
#65 = EDGE_LOOP ( 'NONE', ( #190, #142 ) ) ;
#66 = ADVANCED_FACE ( 'NONE', ( #286 ), #58, .F. ) ;
#67 = PERSON_AND_ORGANIZATION ( #216, #52 ) ;
#68 = DIRECTION ( 'NONE',  ( -0.0000000000000000000, 1.000000000000000000, -0.0000000000000000000 ) ) ;
#69 = ORIENTED_EDGE ( 'NONE', *, *, #110, .F. ) ;
#70 = APPROVAL ( #124, 'UNSPECIFIED' ) ;
#71 = CARTESIAN_POINT ( 'NONE',  ( 0.0000000000000000000, -4.000000000000000000, 50.00000000000000000 ) ) ;
#72 = DIRECTION ( 'NONE',  ( 0.0000000000000000000, -0.0000000000000000000, -1.000000000000000000 ) ) ;
#73 = FACE_BOUND ( 'NONE', #65, .T. ) ;
#74 = AXIS2_PLACEMENT_3D ( 'NONE', #301, #18, #218 ) ;
#75 = PRODUCT_DEFINITION_SHAPE ( 'NONE', 'NONE',  #145 ) ;
#76 = DIRECTION ( 'NONE',  ( 0.0000000000000000000, -1.000000000000000000, 0.0000000000000000000 ) ) ;
#77 = ORIENTED_EDGE ( 'NONE', *, *, #267, .F. ) ;
#78 = DIRECTION ( 'NONE',  ( 0.0000000000000000000, 0.0000000000000000000, 1.000000000000000000 ) ) ;
#79 = CARTESIAN_POINT ( 'NONE',  ( 10.00000000000000178, -4.000000000000000000, 0.0000000000000000000 ) ) ;
#80 = CARTESIAN_POINT ( 'NONE',  ( 10.00000000000000178, 4.000000000000000000, 0.0000000000000000000 ) ) ;
#81 = EDGE_CURVE ( 'NONE', #264, #46, #97, .T. ) ;
#82 = LINE ( 'NONE', #92, #143 ) ;
#83 = APPROVAL_DATE_TIME ( #37, #202 ) ;
#84 = CLOSED_SHELL ( 'NONE', ( #282, #246, #87, #7, #175, #1, #283, #66 ) ) ;
#85 = VECTOR ( 'NONE', #101, 1000.000000000000000 ) ;
#86 = LOCAL_TIME ( 14, 20, 44.00000000000000000, #149 ) ;
#87 = ADVANCED_FACE ( 'NONE', ( #214, #182 ), #211, .F. ) ;
#88 = EDGE_CURVE ( 'NONE', #46, #204, #241, .T. ) ;
#89 = LINE ( 'NONE', #117, #35 ) ;
#90 = ORIENTED_EDGE ( 'NONE', *, *, #123, .T. ) ;
#91 = CARTESIAN_POINT ( 'NONE',  ( -9.999999999999998224, -4.000000000000000000, 100.0000000000000000 ) ) ;
#92 = CARTESIAN_POINT ( 'NONE',  ( 0.0000000000000000000, 4.000000000000000000, 54.25000000000000000 ) ) ;
#93 = DIRECTION ( 'NONE',  ( 0.0000000000000000000, 1.000000000000000000, 0.0000000000000000000 ) ) ;
#94 = CARTESIAN_POINT ( 'NONE',  ( 0.0000000000000000000, -4.000000000000000000, 54.25000000000000000 ) ) ;
#95 = ORIENTED_EDGE ( 'NONE', *, *, #113, .F. ) ;
#96 = DATE_TIME_ROLE ( 'creation_date' ) ;
#97 = LINE ( 'NONE', #188, #307 ) ;
#98 = DIRECTION ( 'NONE',  ( 0.0000000000000000000, 0.0000000000000000000, -1.000000000000000000 ) ) ;
#99 = DIRECTION ( 'NONE',  ( 1.000000000000000000, 0.0000000000000000000, 0.0000000000000000000 ) ) ;
#100 = VECTOR ( 'NONE', #156, 1000.000000000000000 ) ;
#101 = DIRECTION ( 'NONE',  ( -0.0000000000000000000, 1.000000000000000000, -0.0000000000000000000 ) ) ;
#102 = PERSON_AND_ORGANIZATION ( #216, #52 ) ;
#103 = PLANE ( 'NONE',  #26 ) ;
#104 = ORIENTED_EDGE ( 'NONE', *, *, #165, .T. ) ;
#105 = VERTEX_POINT ( 'NONE', #116 ) ;
#106 = APPLICATION_CONTEXT ( 'configuration controlled 3d designs of mechanical parts and assemblies' ) ;
#107 =( GEOMETRIC_REPRESENTATION_CONTEXT ( 3 ) GLOBAL_UNCERTAINTY_ASSIGNED_CONTEXT ( ( #11 ) ) GLOBAL_UNIT_ASSIGNED_CONTEXT ( ( #144, #38, #194 ) ) REPRESENTATION_CONTEXT ( 'NONE', 'WORKASPACE' ) );
#108 = EDGE_LOOP ( 'NONE', ( #234, #29, #208, #109 ) ) ;
#109 = ORIENTED_EDGE ( 'NONE', *, *, #133, .T. ) ;
#110 = EDGE_CURVE ( 'NONE', #204, #271, #31, .T. ) ;
#111 = FACE_OUTER_BOUND ( 'NONE', #155, .T. ) ;
#112 = VERTEX_POINT ( 'NONE', #94 ) ;
#113 = EDGE_CURVE ( 'NONE', #253, #39, #256, .T. ) ;
#114 = CALENDAR_DATE ( 2019, 29, 5 ) ;
#115 = LINE ( 'NONE', #160, #196 ) ;
#116 = CARTESIAN_POINT ( 'NONE',  ( -9.999999999999998224, 4.000000000000000000, 100.0000000000000000 ) ) ;
#117 = CARTESIAN_POINT ( 'NONE',  ( -9.999999999999998224, 4.000000000000000000, 100.0000000000000000 ) ) ;
#118 = CARTESIAN_POINT ( 'NONE',  ( -9.999999999999998224, -4.000000000000000000, 0.0000000000000000000 ) ) ;
#119 = APPROVAL_PERSON_ORGANIZATION ( #233, #70, #139 ) ;
#120 = CC_DESIGN_APPROVAL ( #70, ( #145 ) ) ;
#121 = LINE ( 'NONE', #252, #85 ) ;
#122 = CIRCLE ( 'NONE', #224, 4.249999999999996447 ) ;
#123 = EDGE_CURVE ( 'NONE', #154, #132, #121, .T. ) ;
#124 = APPROVAL_STATUS ( 'not_yet_approved' ) ;
#125 = APPLICATION_CONTEXT ( 'configuration controlled 3d designs of mechanical parts and assemblies' ) ;
#126 = PERSON_AND_ORGANIZATION_ROLE ( 'design_supplier' ) ;
#127 = LOCAL_TIME ( 14, 20, 44.00000000000000000, #185 ) ;
#128 = ADVANCED_BREP_SHAPE_REPRESENTATION ( '1.21.F03', ( #63, #265 ), #107 ) ;
#129 = VECTOR ( 'NONE', #134, 1000.000000000000000 ) ;
#130 = APPROVAL_DATE_TIME ( #257, #308 ) ;
#131 = VECTOR ( 'NONE', #223, 1000.000000000000000 ) ;
#132 = VERTEX_POINT ( 'NONE', #219 ) ;
#133 = EDGE_CURVE ( 'NONE', #264, #253, #148, .T. ) ;
#134 = DIRECTION ( 'NONE',  ( -1.000000000000000000, -0.0000000000000000000, -0.0000000000000000000 ) ) ;
#135 = PERSON_AND_ORGANIZATION ( #216, #52 ) ;
#136 = AXIS2_PLACEMENT_3D ( 'NONE', #51, #68, #245 ) ;
#137 = ORIENTED_EDGE ( 'NONE', *, *, #2, .F. ) ;
#138 = PERSON_AND_ORGANIZATION_ROLE ( 'creator' ) ;
#139 = APPROVAL_ROLE ( '' ) ;
#140 = CARTESIAN_POINT ( 'NONE',  ( -9.999999999999998224, 4.000000000000000000, 0.0000000000000000000 ) ) ;
#141 = CARTESIAN_POINT ( 'NONE',  ( 10.00000000000000178, -4.000000000000000000, 0.0000000000000000000 ) ) ;
#142 = ORIENTED_EDGE ( 'NONE', *, *, #2, .T. ) ;
#143 = VECTOR ( 'NONE', #266, 1000.000000000000000 ) ;
#144 =( LENGTH_UNIT ( ) NAMED_UNIT ( * ) SI_UNIT ( .MILLI., .METRE. ) );
#145 = PRODUCT_DEFINITION ( 'UNKNOWN', '', #237, #258 ) ;
#146 = PRODUCT ( '1.21.F03', '1.21.F03', '', ( #250 ) ) ;
#147 = CARTESIAN_POINT ( 'NONE',  ( 0.0000000000000000000, 0.0000000000000000000, 0.0000000000000000000 ) ) ;
#148 = LINE ( 'NONE', #53, #25 ) ;
#149 = COORDINATED_UNIVERSAL_TIME_OFFSET ( 2, 0, .AHEAD. ) ;
#150 = EDGE_LOOP ( 'NONE', ( #181, #77, #236, #213 ) ) ;
#151 = FACE_OUTER_BOUND ( 'NONE', #108, .T. ) ;
#152 = CIRCLE ( 'NONE', #74, 4.249999999999996447 ) ;
#153 = EDGE_LOOP ( 'NONE', ( #61, #297 ) ) ;
#154 = VERTEX_POINT ( 'NONE', #30 ) ;
#155 = EDGE_LOOP ( 'NONE', ( #209, #95, #285, #274 ) ) ;
#156 = DIRECTION ( 'NONE',  ( -0.0000000000000000000, -1.000000000000000000, -0.0000000000000000000 ) ) ;
#157 = CC_DESIGN_PERSON_AND_ORGANIZATION_ASSIGNMENT ( #135, #126, ( #237 ) ) ;
#158 = CARTESIAN_POINT ( 'NONE',  ( 0.0000000000000000000, 4.000000000000000000, 54.25000000000000000 ) ) ;
#159 = CALENDAR_DATE ( 2019, 29, 5 ) ;
#160 = CARTESIAN_POINT ( 'NONE',  ( -9.999999999999998224, 4.000000000000000000, 100.0000000000000000 ) ) ;
#161 = ORIENTED_EDGE ( 'NONE', *, *, #231, .F. ) ;
#162 = EDGE_CURVE ( 'NONE', #112, #60, #82, .T. ) ;
#163 = APPROVAL_STATUS ( 'not_yet_approved' ) ;
#164 = DIRECTION ( 'NONE',  ( 0.0000000000000000000, 0.0000000000000000000, 1.000000000000000000 ) ) ;
#165 = EDGE_CURVE ( 'NONE', #204, #105, #89, .T. ) ;
#166 = CARTESIAN_POINT ( 'NONE',  ( 0.0000000000000000000, 0.0000000000000000000, 0.0000000000000000000 ) ) ;
#167 = EDGE_LOOP ( 'NONE', ( #186, #69, #306, #222 ) ) ;
#168 = PERSON_AND_ORGANIZATION_ROLE ( 'creator' ) ;
#169 = DIRECTION ( 'NONE',  ( -0.0000000000000000000, 1.000000000000000000, -0.0000000000000000000 ) ) ;
#170 = CC_DESIGN_PERSON_AND_ORGANIZATION_ASSIGNMENT ( #299, #272, ( #146 ) ) ;
#171 = DIRECTION ( 'NONE',  ( -0.0000000000000000000, -1.000000000000000000, -0.0000000000000000000 ) ) ;
#172 = DATE_AND_TIME ( #248, #177 ) ;
#173 = VECTOR ( 'NONE', #171, 1000.000000000000000 ) ;
#174 = CC_DESIGN_PERSON_AND_ORGANIZATION_ASSIGNMENT ( #102, #254, ( #193 ) ) ;
#175 = ADVANCED_FACE ( 'NONE', ( #73, #151 ), #244, .F. ) ;
#176 = PLANE ( 'NONE',  #195 ) ;
#177 = LOCAL_TIME ( 14, 20, 44.00000000000000000, #64 ) ;
#178 = VECTOR ( 'NONE', #217, 1000.000000000000000 ) ;
#179 = AXIS2_PLACEMENT_3D ( 'NONE', #12, #14, #34 ) ;
#180 = FACE_OUTER_BOUND ( 'NONE', #6, .T. ) ;
#181 = ORIENTED_EDGE ( 'NONE', *, *, #22, .T. ) ;
#182 = FACE_OUTER_BOUND ( 'NONE', #150, .T. ) ;
#183 = CARTESIAN_POINT ( 'NONE',  ( -9.999999999999998224, 4.000000000000000000, 100.0000000000000000 ) ) ;
#184 = DIRECTION ( 'NONE',  ( 0.0000000000000000000, 1.000000000000000000, 0.0000000000000000000 ) ) ;
#185 = COORDINATED_UNIVERSAL_TIME_OFFSET ( 2, 0, .AHEAD. ) ;
#186 = ORIENTED_EDGE ( 'NONE', *, *, #296, .T. ) ;
#187 = SHAPE_DEFINITION_REPRESENTATION ( #75, #128 ) ;
#188 = CARTESIAN_POINT ( 'NONE',  ( -9.999999999999998224, -4.000000000000000000, 100.0000000000000000 ) ) ;
#189 = LINE ( 'NONE', #192, #3 ) ;
#190 = ORIENTED_EDGE ( 'NONE', *, *, #198, .T. ) ;
#191 = APPLICATION_PROTOCOL_DEFINITION ( 'international standard', 'config_control_design', 1994, #106 ) ;
#192 = CARTESIAN_POINT ( 'NONE',  ( 10.00000000000000178, -4.000000000000000000, 100.0000000000000000 ) ) ;
#193 = SECURITY_CLASSIFICATION ( '', '', #273 ) ;
#194 =( NAMED_UNIT ( * ) SI_UNIT ( $, .STERADIAN. ) SOLID_ANGLE_UNIT ( ) );
#195 = AXIS2_PLACEMENT_3D ( 'NONE', #48, #287, #238 ) ;
#196 = VECTOR ( 'NONE', #40, 1000.000000000000000 ) ;
#197 = ORIENTED_EDGE ( 'NONE', *, *, #277, .T. ) ;
#198 = EDGE_CURVE ( 'NONE', #112, #154, #279, .T. ) ;
#199 = CARTESIAN_POINT ( 'NONE',  ( -9.999999999999998224, -4.000000000000000000, 100.0000000000000000 ) ) ;
#200 = PERSON_AND_ORGANIZATION ( #216, #52 ) ;
#201 = ORIENTED_EDGE ( 'NONE', *, *, #81, .T. ) ;
#202 = APPROVAL ( #247, 'UNSPECIFIED' ) ;
#203 = PLANE ( 'NONE',  #262 ) ;
#204 = VERTEX_POINT ( 'NONE', #225 ) ;
#205 = LINE ( 'NONE', #207, #100 ) ;
#206 = PRODUCT_RELATED_PRODUCT_CATEGORY ( 'detail', '', ( #146 ) ) ;
#207 = CARTESIAN_POINT ( 'NONE',  ( -9.999999999999998224, -4.000000000000000000, 0.0000000000000000000 ) ) ;
#208 = ORIENTED_EDGE ( 'NONE', *, *, #81, .F. ) ;
#209 = ORIENTED_EDGE ( 'NONE', *, *, #296, .F. ) ;
#210 = DIRECTION ( 'NONE',  ( 0.0000000000000000000, -0.0000000000000000000, 1.000000000000000000 ) ) ;
#211 = PLANE ( 'NONE',  #309 ) ;
#212 = APPROVAL_PERSON_ORGANIZATION ( #41, #308, #17 ) ;
#213 = ORIENTED_EDGE ( 'NONE', *, *, #110, .T. ) ;
#214 = FACE_BOUND ( 'NONE', #153, .T. ) ;
#215 = CC_DESIGN_DATE_AND_TIME_ASSIGNMENT ( #56, #96, ( #145 ) ) ;
#216 = PERSON ( 'UNSPECIFIED', 'UNSPECIFIED', 'UNSPECIFIED', ('UNSPECIFIED'), ('UNSPECIFIED'), ('UNSPECIFIED') ) ;
#217 = DIRECTION ( 'NONE',  ( 1.000000000000000000, 0.0000000000000000000, 0.0000000000000000000 ) ) ;
#218 = DIRECTION ( 'NONE',  ( 0.0000000000000000000, 0.0000000000000000000, 1.000000000000000000 ) ) ;
#219 = CARTESIAN_POINT ( 'NONE',  ( 5.204748896376244783E-16, 4.000000000000000000, 45.75000000000000711 ) ) ;
#220 = DIRECTION ( 'NONE',  ( -0.0000000000000000000, -0.0000000000000000000, -1.000000000000000000 ) ) ;
#221 = CALENDAR_DATE ( 2019, 29, 5 ) ;
#222 = ORIENTED_EDGE ( 'NONE', *, *, #289, .T. ) ;
#223 = DIRECTION ( 'NONE',  ( 0.0000000000000000000, 1.000000000000000000, 0.0000000000000000000 ) ) ;
#224 = AXIS2_PLACEMENT_3D ( 'NONE', #298, #169, #78 ) ;
#225 = CARTESIAN_POINT ( 'NONE',  ( 10.00000000000000178, 4.000000000000000000, 100.0000000000000000 ) ) ;
#226 = EDGE_CURVE ( 'NONE', #261, #253, #205, .T. ) ;
#227 = ORIENTED_EDGE ( 'NONE', *, *, #231, .T. ) ;
#228 = ORIENTED_EDGE ( 'NONE', *, *, #267, .T. ) ;
#229 = LOCAL_TIME ( 14, 20, 44.00000000000000000, #28 ) ;
#230 = ORIENTED_EDGE ( 'NONE', *, *, #303, .T. ) ;
#231 = EDGE_CURVE ( 'NONE', #105, #264, #23, .T. ) ;
#232 = CALENDAR_DATE ( 2019, 29, 5 ) ;
#233 = PERSON_AND_ORGANIZATION ( #216, #52 ) ;
#234 = ORIENTED_EDGE ( 'NONE', *, *, #113, .T. ) ;
#235 = CC_DESIGN_PERSON_AND_ORGANIZATION_ASSIGNMENT ( #200, #168, ( #237 ) ) ;
#236 = ORIENTED_EDGE ( 'NONE', *, *, #165, .F. ) ;
#237 = PRODUCT_DEFINITION_FORMATION_WITH_SPECIFIED_SOURCE ( 'ANY', '', #146, .NOT_KNOWN. ) ;
#238 = DIRECTION ( 'NONE',  ( -1.000000000000000000, 0.0000000000000000000, -0.0000000000000000000 ) ) ;
#239 = DIRECTION ( 'NONE',  ( -1.000000000000000000, 0.0000000000000000000, 0.0000000000000000000 ) ) ;
#240 = ORIENTED_EDGE ( 'NONE', *, *, #88, .T. ) ;
#241 = LINE ( 'NONE', #242, #292 ) ;
#242 = CARTESIAN_POINT ( 'NONE',  ( 10.00000000000000178, -4.000000000000000000, 100.0000000000000000 ) ) ;
#243 = DIRECTION ( 'NONE',  ( -0.0000000000000000000, 1.000000000000000000, -0.0000000000000000000 ) ) ;
#244 = PLANE ( 'NONE',  #8 ) ;
#245 = DIRECTION ( 'NONE',  ( 0.0000000000000000000, 0.0000000000000000000, 1.000000000000000000 ) ) ;
#246 = ADVANCED_FACE ( 'NONE', ( #44 ), #249, .F. ) ;
#247 = APPROVAL_STATUS ( 'not_yet_approved' ) ;
#248 = CALENDAR_DATE ( 2019, 29, 5 ) ;
#249 = PLANE ( 'NONE',  #49 ) ;
#250 = MECHANICAL_CONTEXT ( 'NONE', #125, 'mechanical' ) ;
#251 = ORIENTED_EDGE ( 'NONE', *, *, #162, .F. ) ;
#252 = CARTESIAN_POINT ( 'NONE',  ( 5.204748896376245769E-16, 4.000000000000000000, 45.75000000000000711 ) ) ;
#253 = VERTEX_POINT ( 'NONE', #295 ) ;
#254 = PERSON_AND_ORGANIZATION_ROLE ( 'classification_officer' ) ;
#255 = APPLICATION_PROTOCOL_DEFINITION ( 'international standard', 'config_control_design', 1994, #125 ) ;
#256 = LINE ( 'NONE', #118, #178 ) ;
#257 = DATE_AND_TIME ( #232, #86 ) ;
#258 = DESIGN_CONTEXT ( 'detailed design', #106, 'design' ) ;
#259 = CC_DESIGN_DATE_AND_TIME_ASSIGNMENT ( #302, #19, ( #193 ) ) ;
#260 = CC_DESIGN_APPROVAL ( #308, ( #193 ) ) ;
#261 = VERTEX_POINT ( 'NONE', #310 ) ;
#262 = AXIS2_PLACEMENT_3D ( 'NONE', #5, #270, #288 ) ;
#263 = APPROVAL_DATE_TIME ( #172, #70 ) ;
#264 = VERTEX_POINT ( 'NONE', #199 ) ;
#265 = AXIS2_PLACEMENT_3D ( 'NONE', #147, #59, #99 ) ;
#266 = DIRECTION ( 'NONE',  ( -0.0000000000000000000, 1.000000000000000000, -0.0000000000000000000 ) ) ;
#267 = EDGE_CURVE ( 'NONE', #105, #261, #115, .T. ) ;
#268 = FACE_OUTER_BOUND ( 'NONE', #42, .T. ) ;
#269 = DIRECTION ( 'NONE',  ( -0.0000000000000000000, -0.0000000000000000000, -1.000000000000000000 ) ) ;
#270 = DIRECTION ( 'NONE',  ( 1.000000000000000000, 0.0000000000000000000, 0.0000000000000000000 ) ) ;
#271 = VERTEX_POINT ( 'NONE', #80 ) ;
#272 = PERSON_AND_ORGANIZATION_ROLE ( 'design_owner' ) ;
#273 = SECURITY_CLASSIFICATION_LEVEL ( 'unclassified' ) ;
#274 = ORIENTED_EDGE ( 'NONE', *, *, #22, .F. ) ;
#275 = LINE ( 'NONE', #140, #129 ) ;
#276 = AXIS2_PLACEMENT_3D ( 'NONE', #71, #243, #294 ) ;
#277 = EDGE_CURVE ( 'NONE', #132, #60, #122, .T. ) ;
#278 = ORIENTED_EDGE ( 'NONE', *, *, #226, .T. ) ;
#279 = CIRCLE ( 'NONE', #276, 4.249999999999996447 ) ;
#280 = CYLINDRICAL_SURFACE ( 'NONE', #21, 4.249999999999996447 ) ;
#281 = ORIENTED_EDGE ( 'NONE', *, *, #162, .T. ) ;
#282 = ADVANCED_FACE ( 'NONE', ( #180 ), #280, .F. ) ;
#283 = ADVANCED_FACE ( 'NONE', ( #111 ), #103, .T. ) ;
#284 = CC_DESIGN_PERSON_AND_ORGANIZATION_ASSIGNMENT ( #20, #138, ( #145 ) ) ;
#285 = ORIENTED_EDGE ( 'NONE', *, *, #226, .F. ) ;
#286 = FACE_OUTER_BOUND ( 'NONE', #50, .T. ) ;
#287 = DIRECTION ( 'NONE',  ( 0.0000000000000000000, 0.0000000000000000000, -1.000000000000000000 ) ) ;
#288 = DIRECTION ( 'NONE',  ( 0.0000000000000000000, 0.0000000000000000000, -1.000000000000000000 ) ) ;
#289 = EDGE_CURVE ( 'NONE', #46, #39, #189, .T. ) ;
#290 = LOCAL_TIME ( 14, 20, 44.00000000000000000, #45 ) ;
#291 = ORIENTED_EDGE ( 'NONE', *, *, #123, .F. ) ;
#292 = VECTOR ( 'NONE', #93, 1000.000000000000000 ) ;
#293 = DIRECTION ( 'NONE',  ( -0.0000000000000000000, -0.0000000000000000000, -1.000000000000000000 ) ) ;
#294 = DIRECTION ( 'NONE',  ( 0.0000000000000000000, 0.0000000000000000000, 1.000000000000000000 ) ) ;
#295 = CARTESIAN_POINT ( 'NONE',  ( -9.999999999999998224, -4.000000000000000000, 0.0000000000000000000 ) ) ;
#296 = EDGE_CURVE ( 'NONE', #39, #271, #15, .T. ) ;
#297 = ORIENTED_EDGE ( 'NONE', *, *, #277, .F. ) ;
#298 = CARTESIAN_POINT ( 'NONE',  ( 0.0000000000000000000, 4.000000000000000000, 50.00000000000000000 ) ) ;
#299 = PERSON_AND_ORGANIZATION ( #216, #52 ) ;
#300 = DIRECTION ( 'NONE',  ( -1.000000000000000000, 0.0000000000000000000, -0.0000000000000000000 ) ) ;
#301 = CARTESIAN_POINT ( 'NONE',  ( 0.0000000000000000000, 4.000000000000000000, 50.00000000000000000 ) ) ;
#302 = DATE_AND_TIME ( #221, #290 ) ;
#303 = EDGE_CURVE ( 'NONE', #60, #132, #152, .T. ) ;
#304 = APPROVAL_ROLE ( '' ) ;
#305 = APPROVAL_PERSON_ORGANIZATION ( #67, #202, #304 ) ;
#306 = ORIENTED_EDGE ( 'NONE', *, *, #88, .F. ) ;
#307 = VECTOR ( 'NONE', #32, 1000.000000000000000 ) ;
#308 = APPROVAL ( #163, 'UNSPECIFIED' ) ;
#309 = AXIS2_PLACEMENT_3D ( 'NONE', #183, #76, #72 ) ;
#310 = CARTESIAN_POINT ( 'NONE',  ( -9.999999999999998224, 4.000000000000000000, 0.0000000000000000000 ) ) ;
#311 = CIRCLE ( 'NONE', #136, 4.249999999999996447 ) ;
ENDSEC;
END-ISO-10303-21;
