ISO-10303-21;
HEADER;
FILE_DESCRIPTION (( 'STEP AP203' ),
    '1' );
FILE_NAME ('1.21.F06.STEP',
    '2019-05-29T11:42:05',
    ( '' ),
    ( '' ),
    'SwSTEP 2.0',
    'SolidWorks 2018',
    '' );
FILE_SCHEMA (( 'CONFIG_CONTROL_DESIGN' ));
ENDSEC;

DATA;
#1 = PLANE ( 'NONE',  #71 ) ;
#2 = CARTESIAN_POINT ( 'NONE',  ( 1.224646799147353256E-15, 4.000000000000000000, 10.00000000000000000 ) ) ;
#3 = CC_DESIGN_PERSON_AND_ORGANIZATION_ASSIGNMENT ( #222, #245, ( #297 ) ) ;
#4 = CC_DESIGN_SECURITY_CLASSIFICATION ( #120, ( #22 ) ) ;
#5 = FACE_BOUND ( 'NONE', #75, .T. ) ;
#6 = LINE ( 'NONE', #59, #253 ) ;
#7 = EDGE_CURVE ( 'NONE', #261, #141, #294, .T. ) ;
#8 = CC_DESIGN_DATE_AND_TIME_ASSIGNMENT ( #237, #217, ( #297 ) ) ;
#9 = DIRECTION ( 'NONE',  ( 0.0000000000000000000, -0.0000000000000000000, -1.000000000000000000 ) ) ;
#10 = VERTEX_POINT ( 'NONE', #99 ) ;
#11 = FACE_OUTER_BOUND ( 'NONE', #143, .T. ) ;
#12 = DIRECTION ( 'NONE',  ( 0.0000000000000000000, 0.0000000000000000000, -1.000000000000000000 ) ) ;
#13 = DIRECTION ( 'NONE',  ( 0.0000000000000000000, -0.0000000000000000000, 1.000000000000000000 ) ) ;
#14 = CARTESIAN_POINT ( 'NONE',  ( 1.745121688784978228E-15, 4.000000000000000000, 5.750000000000001776 ) ) ;
#15 = DIRECTION ( 'NONE',  ( 0.0000000000000000000, 0.0000000000000000000, 1.000000000000000000 ) ) ;
#16 = ADVANCED_FACE ( 'NONE', ( #159 ), #1, .F. ) ;
#17 = SHAPE_DEFINITION_REPRESENTATION ( #64, #232 ) ;
#18 = DESIGN_CONTEXT ( 'detailed design', #311, 'design' ) ;
#19 = VERTEX_POINT ( 'NONE', #195 ) ;
#20 = ORIENTED_EDGE ( 'NONE', *, *, #148, .F. ) ;
#21 = ORIENTED_EDGE ( 'NONE', *, *, #26, .T. ) ;
#22 = PRODUCT_DEFINITION_FORMATION_WITH_SPECIFIED_SOURCE ( 'ANY', '', #194, .NOT_KNOWN. ) ;
#23 = DIRECTION ( 'NONE',  ( 0.0000000000000000000, 0.0000000000000000000, 1.000000000000000000 ) ) ;
#24 = PERSON_AND_ORGANIZATION ( #46, #32 ) ;
#25 = APPROVAL_ROLE ( '' ) ;
#26 = EDGE_CURVE ( 'NONE', #19, #272, #247, .T. ) ;
#27 = ORIENTED_EDGE ( 'NONE', *, *, #235, .T. ) ;
#28 = CC_DESIGN_PERSON_AND_ORGANIZATION_ASSIGNMENT ( #24, #214, ( #22 ) ) ;
#29 = CLOSED_SHELL ( 'NONE', ( #40, #16, #305, #182, #208, #233, #157, #111 ) ) ;
#30 = ORIENTED_EDGE ( 'NONE', *, *, #103, .F. ) ;
#31 = PERSON_AND_ORGANIZATION ( #46, #32 ) ;
#32 = ORGANIZATION ( 'UNSPECIFIED', 'UNSPECIFIED', '' ) ;
#33 = ORIENTED_EDGE ( 'NONE', *, *, #72, .T. ) ;
#34 = EDGE_LOOP ( 'NONE', ( #151, #165, #226, #101 ) ) ;
#35 = VERTEX_POINT ( 'NONE', #163 ) ;
#36 = CC_DESIGN_APPROVAL ( #271, ( #22 ) ) ;
#37 = DIRECTION ( 'NONE',  ( -0.0000000000000000000, -0.0000000000000000000, -1.000000000000000000 ) ) ;
#38 = CARTESIAN_POINT ( 'NONE',  ( -10.00000000000000000, -4.000000000000000000, 0.0000000000000000000 ) ) ;
#39 = PLANE ( 'NONE',  #134 ) ;
#40 = ADVANCED_FACE ( 'NONE', ( #289 ), #117, .F. ) ;
#41 = ORIENTED_EDGE ( 'NONE', *, *, #26, .F. ) ;
#42 = LINE ( 'NONE', #44, #65 ) ;
#43 = ORIENTED_EDGE ( 'NONE', *, *, #148, .T. ) ;
#44 = CARTESIAN_POINT ( 'NONE',  ( -10.00000000000000000, 4.000000000000000000, 0.0000000000000000000 ) ) ;
#45 = DATE_AND_TIME ( #293, #138 ) ;
#46 = PERSON ( 'UNSPECIFIED', 'UNSPECIFIED', 'UNSPECIFIED', ('UNSPECIFIED'), ('UNSPECIFIED'), ('UNSPECIFIED') ) ;
#47 = APPLICATION_CONTEXT ( 'configuration controlled 3d designs of mechanical parts and assemblies' ) ;
#48 = EDGE_LOOP ( 'NONE', ( #98, #89, #86, #278 ) ) ;
#49 = VECTOR ( 'NONE', #37, 1000.000000000000000 ) ;
#50 = DIRECTION ( 'NONE',  ( 1.000000000000000000, 0.0000000000000000000, 0.0000000000000000000 ) ) ;
#51 = CARTESIAN_POINT ( 'NONE',  ( 1.224646799147353256E-15, 4.000000000000000000, 14.24999999999999822 ) ) ;
#52 = CC_DESIGN_DATE_AND_TIME_ASSIGNMENT ( #70, #290, ( #120 ) ) ;
#53 = PERSON_AND_ORGANIZATION ( #46, #32 ) ;
#54 = ORIENTED_EDGE ( 'NONE', *, *, #264, .T. ) ;
#55 = VECTOR ( 'NONE', #303, 1000.000000000000000 ) ;
#56 = EDGE_CURVE ( 'NONE', #141, #234, #78, .T. ) ;
#57 = AXIS2_PLACEMENT_3D ( 'NONE', #301, #12, #231 ) ;
#58 = CC_DESIGN_PERSON_AND_ORGANIZATION_ASSIGNMENT ( #31, #287, ( #120 ) ) ;
#59 = CARTESIAN_POINT ( 'NONE',  ( -10.00000000000000000, -4.000000000000000000, 100.0000000000000000 ) ) ;
#60 = LINE ( 'NONE', #38, #309 ) ;
#61 = CARTESIAN_POINT ( 'NONE',  ( 1.224646799147353256E-15, -4.000000000000000000, 10.00000000000000000 ) ) ;
#62 = DIRECTION ( 'NONE',  ( 1.000000000000000000, 0.0000000000000000000, 0.0000000000000000000 ) ) ;
#63 = DIRECTION ( 'NONE',  ( -0.0000000000000000000, 1.000000000000000000, -0.0000000000000000000 ) ) ;
#64 = PRODUCT_DEFINITION_SHAPE ( 'NONE', 'NONE',  #297 ) ;
#65 = VECTOR ( 'NONE', #285, 1000.000000000000000 ) ;
#66 = AXIS2_PLACEMENT_3D ( 'NONE', #131, #238, #256 ) ;
#67 = PERSON_AND_ORGANIZATION ( #46, #32 ) ;
#68 = LINE ( 'NONE', #177, #125 ) ;
#69 = APPROVAL_ROLE ( '' ) ;
#70 = DATE_AND_TIME ( #277, #171 ) ;
#71 = AXIS2_PLACEMENT_3D ( 'NONE', #169, #95, #265 ) ;
#72 = EDGE_CURVE ( 'NONE', #80, #281, #42, .T. ) ;
#73 = AXIS2_PLACEMENT_3D ( 'NONE', #212, #189, #114 ) ;
#74 = CARTESIAN_POINT ( 'NONE',  ( 10.00000000000000000, -4.000000000000000000, 100.0000000000000000 ) ) ;
#75 = EDGE_LOOP ( 'NONE', ( #140, #220 ) ) ;
#76 = LINE ( 'NONE', #14, #202 ) ;
#77 = APPROVAL_PERSON_ORGANIZATION ( #178, #271, #96 ) ;
#78 = CIRCLE ( 'NONE', #187, 4.249999999999998224 ) ;
#79 = DIRECTION ( 'NONE',  ( 0.0000000000000000000, 0.0000000000000000000, 1.000000000000000000 ) ) ;
#80 = VERTEX_POINT ( 'NONE', #91 ) ;
#81 = EDGE_LOOP ( 'NONE', ( #21, #219, #27, #273 ) ) ;
#82 = CARTESIAN_POINT ( 'NONE',  ( -10.00000000000000000, 4.000000000000000000, 100.0000000000000000 ) ) ;
#83 = DIRECTION ( 'NONE',  ( -0.0000000000000000000, -1.000000000000000000, -0.0000000000000000000 ) ) ;
#84 = CARTESIAN_POINT ( 'NONE',  ( 10.00000000000000000, -4.000000000000000000, 0.0000000000000000000 ) ) ;
#85 = APPROVAL_DATE_TIME ( #115, #221 ) ;
#86 = ORIENTED_EDGE ( 'NONE', *, *, #168, .T. ) ;
#87 = CC_DESIGN_PERSON_AND_ORGANIZATION_ASSIGNMENT ( #197, #121, ( #22 ) ) ;
#88 = AXIS2_PLACEMENT_3D ( 'NONE', #106, #227, #79 ) ;
#89 = ORIENTED_EDGE ( 'NONE', *, *, #279, .T. ) ;
#90 = ORIENTED_EDGE ( 'NONE', *, *, #218, .T. ) ;
#91 = CARTESIAN_POINT ( 'NONE',  ( 10.00000000000000000, 4.000000000000000000, 0.0000000000000000000 ) ) ;
#92 = DIRECTION ( 'NONE',  ( 0.0000000000000000000, 0.0000000000000000000, 1.000000000000000000 ) ) ;
#93 = APPROVAL_DATE_TIME ( #45, #271 ) ;
#94 = VERTEX_POINT ( 'NONE', #308 ) ;
#95 = DIRECTION ( 'NONE',  ( -1.000000000000000000, 0.0000000000000000000, 0.0000000000000000000 ) ) ;
#96 = APPROVAL_ROLE ( '' ) ;
#97 = EDGE_LOOP ( 'NONE', ( #43, #210, #144, #112 ) ) ;
#98 = ORIENTED_EDGE ( 'NONE', *, *, #223, .F. ) ;
#99 = CARTESIAN_POINT ( 'NONE',  ( -10.00000000000000000, -4.000000000000000000, 0.0000000000000000000 ) ) ;
#100 = COORDINATED_UNIVERSAL_TIME_OFFSET ( 2, 0, .AHEAD. ) ;
#101 = ORIENTED_EDGE ( 'NONE', *, *, #56, .T. ) ;
#102 = VECTOR ( 'NONE', #244, 1000.000000000000000 ) ;
#103 = EDGE_CURVE ( 'NONE', #272, #224, #310, .T. ) ;
#104 = AXIS2_PLACEMENT_3D ( 'NONE', #61, #110, #15 ) ;
#105 = DIRECTION ( 'NONE',  ( 0.0000000000000000000, 0.0000000000000000000, -1.000000000000000000 ) ) ;
#106 = CARTESIAN_POINT ( 'NONE',  ( 1.224646799147353256E-15, -4.000000000000000000, 10.00000000000000000 ) ) ;
#107 = DIRECTION ( 'NONE',  ( -0.0000000000000000000, -0.0000000000000000000, -1.000000000000000000 ) ) ;
#108 = DATE_AND_TIME ( #300, #230 ) ;
#109 =( NAMED_UNIT ( * ) PLANE_ANGLE_UNIT ( ) SI_UNIT ( $, .RADIAN. ) );
#110 = DIRECTION ( 'NONE',  ( -0.0000000000000000000, 1.000000000000000000, -0.0000000000000000000 ) ) ;
#111 = ADVANCED_FACE ( 'NONE', ( #241 ), #118, .F. ) ;
#112 = ORIENTED_EDGE ( 'NONE', *, *, #198, .T. ) ;
#113 = CIRCLE ( 'NONE', #66, 4.249999999999998224 ) ;
#114 = DIRECTION ( 'NONE',  ( 0.0000000000000000000, 0.0000000000000000000, 1.000000000000000000 ) ) ;
#115 = DATE_AND_TIME ( #145, #213 ) ;
#116 = UNCERTAINTY_MEASURE_WITH_UNIT (LENGTH_MEASURE( 1.000000000000000082E-05 ), #229, 'distance_accuracy_value', 'NONE');
#117 = CYLINDRICAL_SURFACE ( 'NONE', #122, 4.249999999999998224 ) ;
#118 = CYLINDRICAL_SURFACE ( 'NONE', #73, 4.249999999999998224 ) ;
#119 = MECHANICAL_CONTEXT ( 'NONE', #47, 'mechanical' ) ;
#120 = SECURITY_CLASSIFICATION ( '', '', #259 ) ;
#121 = PERSON_AND_ORGANIZATION_ROLE ( 'design_supplier' ) ;
#122 = AXIS2_PLACEMENT_3D ( 'NONE', #2, #262, #92 ) ;
#123 = DIRECTION ( 'NONE',  ( 1.000000000000000000, 0.0000000000000000000, 0.0000000000000000000 ) ) ;
#124 = LINE ( 'NONE', #176, #251 ) ;
#125 = VECTOR ( 'NONE', #107, 1000.000000000000000 ) ;
#126 = DIRECTION ( 'NONE',  ( 0.0000000000000000000, -1.000000000000000000, 0.0000000000000000000 ) ) ;
#127 = PLANE ( 'NONE',  #149 ) ;
#128 = LINE ( 'NONE', #201, #246 ) ;
#129 = DIRECTION ( 'NONE',  ( -0.0000000000000000000, -0.0000000000000000000, -1.000000000000000000 ) ) ;
#130 = CARTESIAN_POINT ( 'NONE',  ( 1.224646799147353256E-15, -4.000000000000000000, 14.24999999999999822 ) ) ;
#131 = CARTESIAN_POINT ( 'NONE',  ( 1.224646799147353256E-15, 4.000000000000000888, 10.00000000000000000 ) ) ;
#132 = COORDINATED_UNIVERSAL_TIME_OFFSET ( 2, 0, .AHEAD. ) ;
#133 = EDGE_CURVE ( 'NONE', #261, #94, #191, .T. ) ;
#134 = AXIS2_PLACEMENT_3D ( 'NONE', #275, #123, #175 ) ;
#135 = ORIENTED_EDGE ( 'NONE', *, *, #240, .T. ) ;
#136 = CIRCLE ( 'NONE', #88, 4.249999999999998224 ) ;
#137 = DIRECTION ( 'NONE',  ( -0.0000000000000000000, 1.000000000000000000, -0.0000000000000000000 ) ) ;
#138 = LOCAL_TIME ( 14, 42, 5.000000000000000000, #100 ) ;
#139 = APPLICATION_PROTOCOL_DEFINITION ( 'international standard', 'config_control_design', 1994, #47 ) ;
#140 = ORIENTED_EDGE ( 'NONE', *, *, #133, .T. ) ;
#141 = VERTEX_POINT ( 'NONE', #205 ) ;
#142 = DIRECTION ( 'NONE',  ( 0.0000000000000000000, 1.000000000000000000, 0.0000000000000000000 ) ) ;
#143 = EDGE_LOOP ( 'NONE', ( #90, #160, #280, #216 ) ) ;
#144 = ORIENTED_EDGE ( 'NONE', *, *, #235, .F. ) ;
#145 = CALENDAR_DATE ( 2019, 29, 5 ) ;
#146 = MANIFOLD_SOLID_BREP ( 'M10 Tapped Hole1', #29 ) ;
#147 = EDGE_LOOP ( 'NONE', ( #267, #304, #20, #211 ) ) ;
#148 = EDGE_CURVE ( 'NONE', #281, #10, #185, .T. ) ;
#149 = AXIS2_PLACEMENT_3D ( 'NONE', #249, #105, #250 ) ;
#150 = ORIENTED_EDGE ( 'NONE', *, *, #198, .F. ) ;
#151 = ORIENTED_EDGE ( 'NONE', *, *, #279, .F. ) ;
#152 = CARTESIAN_POINT ( 'NONE',  ( -10.00000000000000000, -4.000000000000000000, 100.0000000000000000 ) ) ;
#153 = CARTESIAN_POINT ( 'NONE',  ( -10.00000000000000000, 4.000000000000000000, 100.0000000000000000 ) ) ;
#154 = DIRECTION ( 'NONE',  ( 0.0000000000000000000, 1.000000000000000000, 0.0000000000000000000 ) ) ;
#155 = DIRECTION ( 'NONE',  ( 0.0000000000000000000, 1.000000000000000000, 0.0000000000000000000 ) ) ;
#156 = APPROVAL_PERSON_ORGANIZATION ( #53, #221, #69 ) ;
#157 = ADVANCED_FACE ( 'NONE', ( #248 ), #183, .T. ) ;
#158 = ORIENTED_EDGE ( 'NONE', *, *, #56, .F. ) ;
#159 = FACE_OUTER_BOUND ( 'NONE', #288, .T. ) ;
#160 = ORIENTED_EDGE ( 'NONE', *, *, #186, .F. ) ;
#161 = CARTESIAN_POINT ( 'NONE',  ( -10.00000000000000000, 4.000000000000000000, 100.0000000000000000 ) ) ;
#162 = COORDINATED_UNIVERSAL_TIME_OFFSET ( 2, 0, .AHEAD. ) ;
#163 = CARTESIAN_POINT ( 'NONE',  ( -10.00000000000000000, -4.000000000000000000, 100.0000000000000000 ) ) ;
#164 = PERSON_AND_ORGANIZATION ( #46, #32 ) ;
#165 = ORIENTED_EDGE ( 'NONE', *, *, #133, .F. ) ;
#166 = CARTESIAN_POINT ( 'NONE',  ( 0.0000000000000000000, 0.0000000000000000000, 0.0000000000000000000 ) ) ;
#167 = APPROVAL_STATUS ( 'not_yet_approved' ) ;
#168 = EDGE_CURVE ( 'NONE', #234, #141, #113, .T. ) ;
#169 = CARTESIAN_POINT ( 'NONE',  ( 10.00000000000000000, -4.000000000000000000, 100.0000000000000000 ) ) ;
#170 =( GEOMETRIC_REPRESENTATION_CONTEXT ( 3 ) GLOBAL_UNCERTAINTY_ASSIGNED_CONTEXT ( ( #116 ) ) GLOBAL_UNIT_ASSIGNED_CONTEXT ( ( #229, #109, #228 ) ) REPRESENTATION_CONTEXT ( 'NONE', 'WORKASPACE' ) );
#171 = LOCAL_TIME ( 14, 42, 5.000000000000000000, #162 ) ;
#172 = FACE_BOUND ( 'NONE', #209, .T. ) ;
#173 = VECTOR ( 'NONE', #142, 1000.000000000000000 ) ;
#174 = LINE ( 'NONE', #153, #49 ) ;
#175 = DIRECTION ( 'NONE',  ( 0.0000000000000000000, 0.0000000000000000000, -1.000000000000000000 ) ) ;
#176 = CARTESIAN_POINT ( 'NONE',  ( -10.00000000000000000, -4.000000000000000000, 100.0000000000000000 ) ) ;
#177 = CARTESIAN_POINT ( 'NONE',  ( 10.00000000000000000, -4.000000000000000000, 100.0000000000000000 ) ) ;
#178 = PERSON_AND_ORGANIZATION ( #46, #32 ) ;
#179 = PLANE ( 'NONE',  #236 ) ;
#180 = VECTOR ( 'NONE', #206, 1000.000000000000000 ) ;
#181 = CARTESIAN_POINT ( 'NONE',  ( -10.00000000000000000, 4.000000000000000000, 100.0000000000000000 ) ) ;
#182 = ADVANCED_FACE ( 'NONE', ( #306 ), #39, .F. ) ;
#183 = PLANE ( 'NONE',  #57 ) ;
#184 = VECTOR ( 'NONE', #299, 1000.000000000000000 ) ;
#185 = LINE ( 'NONE', #276, #55 ) ;
#186 = EDGE_CURVE ( 'NONE', #19, #270, #68, .T. ) ;
#187 = AXIS2_PLACEMENT_3D ( 'NONE', #284, #137, #23 ) ;
#188 = COORDINATED_UNIVERSAL_TIME_OFFSET ( 2, 0, .AHEAD. ) ;
#189 = DIRECTION ( 'NONE',  ( -0.0000000000000000000, 1.000000000000000000, -0.0000000000000000000 ) ) ;
#190 = APPROVAL_STATUS ( 'not_yet_approved' ) ;
#191 = CIRCLE ( 'NONE', #104, 4.249999999999998224 ) ;
#192 = EDGE_CURVE ( 'NONE', #35, #10, #6, .T. ) ;
#193 = CC_DESIGN_APPROVAL ( #221, ( #120 ) ) ;
#194 = PRODUCT ( '1.21.F06', '1.21.F06', '', ( #119 ) ) ;
#195 = CARTESIAN_POINT ( 'NONE',  ( 10.00000000000000000, -4.000000000000000000, 100.0000000000000000 ) ) ;
#196 = LINE ( 'NONE', #274, #180 ) ;
#197 = PERSON_AND_ORGANIZATION ( #46, #32 ) ;
#198 = EDGE_CURVE ( 'NONE', #224, #281, #174, .T. ) ;
#199 = ORIENTED_EDGE ( 'NONE', *, *, #240, .F. ) ;
#200 = EDGE_LOOP ( 'NONE', ( #33, #150, #30, #135 ) ) ;
#201 = CARTESIAN_POINT ( 'NONE',  ( 10.00000000000000000, -4.000000000000000000, 0.0000000000000000000 ) ) ;
#202 = VECTOR ( 'NONE', #63, 1000.000000000000000 ) ;
#203 = PLANE ( 'NONE',  #282 ) ;
#204 = CARTESIAN_POINT ( 'NONE',  ( 10.00000000000000000, 4.000000000000000000, 100.0000000000000000 ) ) ;
#205 = CARTESIAN_POINT ( 'NONE',  ( 1.224646799147353256E-15, 4.000000000000000888, 14.24999999999999822 ) ) ;
#206 = DIRECTION ( 'NONE',  ( -0.0000000000000000000, -0.0000000000000000000, -1.000000000000000000 ) ) ;
#207 = CALENDAR_DATE ( 2019, 29, 5 ) ;
#208 = ADVANCED_FACE ( 'NONE', ( #5, #11 ), #203, .F. ) ;
#209 = EDGE_LOOP ( 'NONE', ( #158, #266 ) ) ;
#210 = ORIENTED_EDGE ( 'NONE', *, *, #192, .F. ) ;
#211 = ORIENTED_EDGE ( 'NONE', *, *, #72, .F. ) ;
#212 = CARTESIAN_POINT ( 'NONE',  ( 1.224646799147353256E-15, 4.000000000000000000, 10.00000000000000000 ) ) ;
#213 = LOCAL_TIME ( 14, 42, 5.000000000000000000, #269 ) ;
#214 = PERSON_AND_ORGANIZATION_ROLE ( 'creator' ) ;
#215 = FACE_OUTER_BOUND ( 'NONE', #200, .T. ) ;
#216 = ORIENTED_EDGE ( 'NONE', *, *, #192, .T. ) ;
#217 = DATE_TIME_ROLE ( 'creation_date' ) ;
#218 = EDGE_CURVE ( 'NONE', #10, #270, #60, .T. ) ;
#219 = ORIENTED_EDGE ( 'NONE', *, *, #103, .T. ) ;
#220 = ORIENTED_EDGE ( 'NONE', *, *, #223, .T. ) ;
#221 = APPROVAL ( #167, 'UNSPECIFIED' ) ;
#222 = PERSON_AND_ORGANIZATION ( #46, #32 ) ;
#223 = EDGE_CURVE ( 'NONE', #94, #261, #136, .T. ) ;
#224 = VERTEX_POINT ( 'NONE', #82 ) ;
#225 = AXIS2_PLACEMENT_3D ( 'NONE', #166, #260, #50 ) ;
#226 = ORIENTED_EDGE ( 'NONE', *, *, #7, .T. ) ;
#227 = DIRECTION ( 'NONE',  ( -0.0000000000000000000, 1.000000000000000000, -0.0000000000000000000 ) ) ;
#228 =( NAMED_UNIT ( * ) SI_UNIT ( $, .STERADIAN. ) SOLID_ANGLE_UNIT ( ) );
#229 =( LENGTH_UNIT ( ) NAMED_UNIT ( * ) SI_UNIT ( .MILLI., .METRE. ) );
#230 = LOCAL_TIME ( 14, 42, 5.000000000000000000, #188 ) ;
#231 = DIRECTION ( 'NONE',  ( -1.000000000000000000, 0.0000000000000000000, -0.0000000000000000000 ) ) ;
#232 = ADVANCED_BREP_SHAPE_REPRESENTATION ( '1.21.F06', ( #146, #225 ), #170 ) ;
#233 = ADVANCED_FACE ( 'NONE', ( #255 ), #127, .F. ) ;
#234 = VERTEX_POINT ( 'NONE', #302 ) ;
#235 = EDGE_CURVE ( 'NONE', #224, #35, #124, .T. ) ;
#236 = AXIS2_PLACEMENT_3D ( 'NONE', #181, #126, #9 ) ;
#237 = DATE_AND_TIME ( #207, #258 ) ;
#238 = DIRECTION ( 'NONE',  ( -0.0000000000000000000, 1.000000000000000000, -0.0000000000000000000 ) ) ;
#239 = LINE ( 'NONE', #152, #184 ) ;
#240 = EDGE_CURVE ( 'NONE', #272, #80, #196, .T. ) ;
#241 = FACE_OUTER_BOUND ( 'NONE', #34, .T. ) ;
#242 = PERSON_AND_ORGANIZATION_ROLE ( 'design_owner' ) ;
#243 = APPROVAL ( #190, 'UNSPECIFIED' ) ;
#244 = DIRECTION ( 'NONE',  ( -0.0000000000000000000, 1.000000000000000000, -0.0000000000000000000 ) ) ;
#245 = PERSON_AND_ORGANIZATION_ROLE ( 'creator' ) ;
#246 = VECTOR ( 'NONE', #155, 1000.000000000000000 ) ;
#247 = LINE ( 'NONE', #74, #173 ) ;
#248 = FACE_OUTER_BOUND ( 'NONE', #147, .T. ) ;
#249 = CARTESIAN_POINT ( 'NONE',  ( 0.0000000000000000000, 0.0000000000000000000, 100.0000000000000000 ) ) ;
#250 = DIRECTION ( 'NONE',  ( -1.000000000000000000, 0.0000000000000000000, -0.0000000000000000000 ) ) ;
#251 = VECTOR ( 'NONE', #83, 1000.000000000000000 ) ;
#252 = CARTESIAN_POINT ( 'NONE',  ( -10.00000000000000000, -4.000000000000000000, 100.0000000000000000 ) ) ;
#253 = VECTOR ( 'NONE', #129, 1000.000000000000000 ) ;
#254 = CC_DESIGN_APPROVAL ( #243, ( #297 ) ) ;
#255 = FACE_OUTER_BOUND ( 'NONE', #81, .T. ) ;
#256 = DIRECTION ( 'NONE',  ( 0.0000000000000000000, 0.0000000000000000000, 1.000000000000000000 ) ) ;
#257 = DIRECTION ( 'NONE',  ( -1.000000000000000000, -0.0000000000000000000, -0.0000000000000000000 ) ) ;
#258 = LOCAL_TIME ( 14, 42, 5.000000000000000000, #132 ) ;
#259 = SECURITY_CLASSIFICATION_LEVEL ( 'unclassified' ) ;
#260 = DIRECTION ( 'NONE',  ( 0.0000000000000000000, 0.0000000000000000000, 1.000000000000000000 ) ) ;
#261 = VERTEX_POINT ( 'NONE', #130 ) ;
#262 = DIRECTION ( 'NONE',  ( -0.0000000000000000000, 1.000000000000000000, -0.0000000000000000000 ) ) ;
#263 = APPROVAL_STATUS ( 'not_yet_approved' ) ;
#264 = EDGE_CURVE ( 'NONE', #270, #80, #128, .T. ) ;
#265 = DIRECTION ( 'NONE',  ( 0.0000000000000000000, 0.0000000000000000000, 1.000000000000000000 ) ) ;
#266 = ORIENTED_EDGE ( 'NONE', *, *, #168, .F. ) ;
#267 = ORIENTED_EDGE ( 'NONE', *, *, #264, .F. ) ;
#268 = APPROVAL_PERSON_ORGANIZATION ( #67, #243, #25 ) ;
#269 = COORDINATED_UNIVERSAL_TIME_OFFSET ( 2, 0, .AHEAD. ) ;
#270 = VERTEX_POINT ( 'NONE', #84 ) ;
#271 = APPROVAL ( #263, 'UNSPECIFIED' ) ;
#272 = VERTEX_POINT ( 'NONE', #204 ) ;
#273 = ORIENTED_EDGE ( 'NONE', *, *, #296, .T. ) ;
#274 = CARTESIAN_POINT ( 'NONE',  ( 10.00000000000000000, 4.000000000000000000, 100.0000000000000000 ) ) ;
#275 = CARTESIAN_POINT ( 'NONE',  ( -10.00000000000000000, -4.000000000000000000, 100.0000000000000000 ) ) ;
#276 = CARTESIAN_POINT ( 'NONE',  ( -10.00000000000000000, -4.000000000000000000, 0.0000000000000000000 ) ) ;
#277 = CALENDAR_DATE ( 2019, 29, 5 ) ;
#278 = ORIENTED_EDGE ( 'NONE', *, *, #7, .F. ) ;
#279 = EDGE_CURVE ( 'NONE', #94, #234, #76, .T. ) ;
#280 = ORIENTED_EDGE ( 'NONE', *, *, #296, .F. ) ;
#281 = VERTEX_POINT ( 'NONE', #298 ) ;
#282 = AXIS2_PLACEMENT_3D ( 'NONE', #252, #154, #13 ) ;
#283 = PRODUCT_RELATED_PRODUCT_CATEGORY ( 'detail', '', ( #194 ) ) ;
#284 = CARTESIAN_POINT ( 'NONE',  ( 1.224646799147353256E-15, 4.000000000000000888, 10.00000000000000000 ) ) ;
#285 = DIRECTION ( 'NONE',  ( -1.000000000000000000, -0.0000000000000000000, -0.0000000000000000000 ) ) ;
#286 = APPROVAL_DATE_TIME ( #108, #243 ) ;
#287 = PERSON_AND_ORGANIZATION_ROLE ( 'classification_officer' ) ;
#288 = EDGE_LOOP ( 'NONE', ( #54, #199, #41, #292 ) ) ;
#289 = FACE_OUTER_BOUND ( 'NONE', #48, .T. ) ;
#290 = DATE_TIME_ROLE ( 'classification_date' ) ;
#291 = APPLICATION_PROTOCOL_DEFINITION ( 'international standard', 'config_control_design', 1994, #311 ) ;
#292 = ORIENTED_EDGE ( 'NONE', *, *, #186, .T. ) ;
#293 = CALENDAR_DATE ( 2019, 29, 5 ) ;
#294 = LINE ( 'NONE', #51, #102 ) ;
#295 = VECTOR ( 'NONE', #257, 1000.000000000000000 ) ;
#296 = EDGE_CURVE ( 'NONE', #35, #19, #239, .T. ) ;
#297 = PRODUCT_DEFINITION ( 'UNKNOWN', '', #22, #18 ) ;
#298 = CARTESIAN_POINT ( 'NONE',  ( -10.00000000000000000, 4.000000000000000000, 0.0000000000000000000 ) ) ;
#299 = DIRECTION ( 'NONE',  ( 1.000000000000000000, 0.0000000000000000000, 0.0000000000000000000 ) ) ;
#300 = CALENDAR_DATE ( 2019, 29, 5 ) ;
#301 = CARTESIAN_POINT ( 'NONE',  ( 0.0000000000000000000, 0.0000000000000000000, 0.0000000000000000000 ) ) ;
#302 = CARTESIAN_POINT ( 'NONE',  ( 1.745121688784978228E-15, 4.000000000000000888, 5.750000000000001776 ) ) ;
#303 = DIRECTION ( 'NONE',  ( -0.0000000000000000000, -1.000000000000000000, -0.0000000000000000000 ) ) ;
#304 = ORIENTED_EDGE ( 'NONE', *, *, #218, .F. ) ;
#305 = ADVANCED_FACE ( 'NONE', ( #172, #215 ), #179, .F. ) ;
#306 = FACE_OUTER_BOUND ( 'NONE', #97, .T. ) ;
#307 = CC_DESIGN_PERSON_AND_ORGANIZATION_ASSIGNMENT ( #164, #242, ( #194 ) ) ;
#308 = CARTESIAN_POINT ( 'NONE',  ( 1.745121688784978228E-15, -4.000000000000000000, 5.750000000000002665 ) ) ;
#309 = VECTOR ( 'NONE', #62, 1000.000000000000000 ) ;
#310 = LINE ( 'NONE', #161, #295 ) ;
#311 = APPLICATION_CONTEXT ( 'configuration controlled 3d designs of mechanical parts and assemblies' ) ;
ENDSEC;
END-ISO-10303-21;
