ISO-10303-21;
HEADER;
FILE_DESCRIPTION (( 'STEP AP203' ),
    '1' );
FILE_NAME ('1.23.F03.STEP',
    '2019-05-29T11:25:05',
    ( '' ),
    ( '' ),
    'SwSTEP 2.0',
    'SolidWorks 2018',
    '' );
FILE_SCHEMA (( 'CONFIG_CONTROL_DESIGN' ));
ENDSEC;

DATA;
#1 = ORIENTED_EDGE ( 'NONE', *, *, #112, .F. ) ;
#2 = PLANE ( 'NONE',  #289 ) ;
#3 = LINE ( 'NONE', #65, #307 ) ;
#4 = ORGANIZATION ( 'UNSPECIFIED', 'UNSPECIFIED', '' ) ;
#5 = CARTESIAN_POINT ( 'NONE',  ( -49.99999999999995026, -15.00000000000000000, 0.0000000000000000000 ) ) ;
#6 = CARTESIAN_POINT ( 'NONE',  ( 0.0000000000000000000, 0.0000000000000000000, 0.0000000000000000000 ) ) ;
#7 = AXIS2_PLACEMENT_3D ( 'NONE', #269, #149, #250 ) ;
#8 = COORDINATED_UNIVERSAL_TIME_OFFSET ( 2, 0, .AHEAD. ) ;
#9 = CARTESIAN_POINT ( 'NONE',  ( 50.00000000000004974, -15.00000000000000000, 0.0000000000000000000 ) ) ;
#10 = DATE_TIME_ROLE ( 'classification_date' ) ;
#11 = LINE ( 'NONE', #201, #132 ) ;
#12 = VECTOR ( 'NONE', #75, 1000.000000000000000 ) ;
#13 = APPROVAL ( #247, 'UNSPECIFIED' ) ;
#14 = CARTESIAN_POINT ( 'NONE',  ( -5.099999999999998757, 6.245698675651499853E-16, 10.00000000000000000 ) ) ;
#15 = APPROVAL_ROLE ( '' ) ;
#16 = DIRECTION ( 'NONE',  ( 1.000000000000000000, 0.0000000000000000000, 0.0000000000000000000 ) ) ;
#17 = MECHANICAL_CONTEXT ( 'NONE', #200, 'mechanical' ) ;
#18 = LINE ( 'NONE', #104, #56 ) ;
#19 =( GEOMETRIC_REPRESENTATION_CONTEXT ( 3 ) GLOBAL_UNCERTAINTY_ASSIGNED_CONTEXT ( ( #87 ) ) GLOBAL_UNIT_ASSIGNED_CONTEXT ( ( #125, #272, #178 ) ) REPRESENTATION_CONTEXT ( 'NONE', 'WORKASPACE' ) );
#20 = CALENDAR_DATE ( 2019, 29, 5 ) ;
#21 = CARTESIAN_POINT ( 'NONE',  ( 0.0000000000000000000, 0.0000000000000000000, 0.0000000000000000000 ) ) ;
#22 = CC_DESIGN_APPROVAL ( #13, ( #136 ) ) ;
#23 = LINE ( 'NONE', #95, #208 ) ;
#24 = ORIENTED_EDGE ( 'NONE', *, *, #181, .F. ) ;
#25 = FACE_OUTER_BOUND ( 'NONE', #206, .T. ) ;
#26 = APPROVAL_DATE_TIME ( #275, #13 ) ;
#27 = AXIS2_PLACEMENT_3D ( 'NONE', #6, #51, #16 ) ;
#28 = ORIENTED_EDGE ( 'NONE', *, *, #281, .F. ) ;
#29 = CYLINDRICAL_SURFACE ( 'NONE', #277, 5.099999999999998757 ) ;
#30 = ORIENTED_EDGE ( 'NONE', *, *, #84, .F. ) ;
#31 = CARTESIAN_POINT ( 'NONE',  ( 50.00000000000004974, 14.99999999999999645, 0.0000000000000000000 ) ) ;
#32 = VECTOR ( 'NONE', #219, 1000.000000000000000 ) ;
#33 = CARTESIAN_POINT ( 'NONE',  ( 5.099999999999998757, 0.0000000000000000000, 10.00000000000000000 ) ) ;
#34 = VECTOR ( 'NONE', #97, 1000.000000000000000 ) ;
#35 = CARTESIAN_POINT ( 'NONE',  ( -49.99999999999995026, 14.99999999999999645, 10.00000000000000000 ) ) ;
#36 = DIRECTION ( 'NONE',  ( -0.0000000000000000000, -0.0000000000000000000, -1.000000000000000000 ) ) ;
#37 = CARTESIAN_POINT ( 'NONE',  ( 50.00000000000004974, 14.99999999999999645, 10.00000000000000000 ) ) ;
#38 = CARTESIAN_POINT ( 'NONE',  ( -49.99999999999995026, 14.99999999999999645, 10.00000000000000000 ) ) ;
#39 = ORIENTED_EDGE ( 'NONE', *, *, #249, .F. ) ;
#40 = VECTOR ( 'NONE', #120, 1000.000000000000000 ) ;
#41 = APPLICATION_PROTOCOL_DEFINITION ( 'international standard', 'config_control_design', 1994, #200 ) ;
#42 = DIRECTION ( 'NONE',  ( -1.000000000000000000, -0.0000000000000000000, -0.0000000000000000000 ) ) ;
#43 = AXIS2_PLACEMENT_3D ( 'NONE', #21, #248, #153 ) ;
#44 = EDGE_LOOP ( 'NONE', ( #259, #110, #159, #137 ) ) ;
#45 = EDGE_LOOP ( 'NONE', ( #280, #157, #24, #39 ) ) ;
#46 = VECTOR ( 'NONE', #69, 1000.000000000000000 ) ;
#47 = ORIENTED_EDGE ( 'NONE', *, *, #150, .F. ) ;
#48 = PRODUCT_DEFINITION_SHAPE ( 'NONE', 'NONE',  #68 ) ;
#49 = VERTEX_POINT ( 'NONE', #31 ) ;
#50 = CARTESIAN_POINT ( 'NONE',  ( 50.00000000000004974, -15.00000000000000000, 10.00000000000000000 ) ) ;
#51 = DIRECTION ( 'NONE',  ( -0.0000000000000000000, -0.0000000000000000000, 1.000000000000000000 ) ) ;
#52 = DIRECTION ( 'NONE',  ( -0.0000000000000000000, -0.0000000000000000000, 1.000000000000000000 ) ) ;
#53 = FACE_OUTER_BOUND ( 'NONE', #265, .T. ) ;
#54 = APPLICATION_PROTOCOL_DEFINITION ( 'international standard', 'config_control_design', 1994, #286 ) ;
#55 = CARTESIAN_POINT ( 'NONE',  ( 0.0000000000000000000, 0.0000000000000000000, 10.00000000000000000 ) ) ;
#56 = VECTOR ( 'NONE', #42, 1000.000000000000000 ) ;
#57 = CARTESIAN_POINT ( 'NONE',  ( 50.00000000000004974, -15.00000000000000000, 10.00000000000000000 ) ) ;
#58 = CC_DESIGN_PERSON_AND_ORGANIZATION_ASSIGNMENT ( #240, #270, ( #155 ) ) ;
#59 = ORIENTED_EDGE ( 'NONE', *, *, #177, .T. ) ;
#60 = VECTOR ( 'NONE', #91, 1000.000000000000000 ) ;
#61 = CALENDAR_DATE ( 2019, 29, 5 ) ;
#62 = CC_DESIGN_PERSON_AND_ORGANIZATION_ASSIGNMENT ( #182, #276, ( #311 ) ) ;
#63 = COORDINATED_UNIVERSAL_TIME_OFFSET ( 2, 0, .AHEAD. ) ;
#64 = LINE ( 'NONE', #266, #108 ) ;
#65 = CARTESIAN_POINT ( 'NONE',  ( -49.99999999999995026, 14.99999999999999645, 10.00000000000000000 ) ) ;
#66 = CYLINDRICAL_SURFACE ( 'NONE', #167, 5.099999999999998757 ) ;
#67 = PERSON_AND_ORGANIZATION ( #253, #4 ) ;
#68 = PRODUCT_DEFINITION ( 'UNKNOWN', '', #155, #234 ) ;
#69 = DIRECTION ( 'NONE',  ( -0.0000000000000000000, -0.0000000000000000000, -1.000000000000000000 ) ) ;
#70 = CALENDAR_DATE ( 2019, 29, 5 ) ;
#71 = CARTESIAN_POINT ( 'NONE',  ( 0.0000000000000000000, 0.0000000000000000000, 10.00000000000000000 ) ) ;
#72 = ORIENTED_EDGE ( 'NONE', *, *, #199, .F. ) ;
#73 = VERTEX_POINT ( 'NONE', #260 ) ;
#74 = DIRECTION ( 'NONE',  ( -0.0000000000000000000, -0.0000000000000000000, 1.000000000000000000 ) ) ;
#75 = DIRECTION ( 'NONE',  ( -0.0000000000000000000, -0.0000000000000000000, -1.000000000000000000 ) ) ;
#76 = DIRECTION ( 'NONE',  ( 1.000000000000000000, 0.0000000000000000000, 0.0000000000000000000 ) ) ;
#77 = VERTEX_POINT ( 'NONE', #5 ) ;
#78 = LINE ( 'NONE', #194, #46 ) ;
#79 = DATE_AND_TIME ( #133, #235 ) ;
#80 = ADVANCED_FACE ( 'NONE', ( #292 ), #2, .F. ) ;
#81 = AXIS2_PLACEMENT_3D ( 'NONE', #171, #214, #295 ) ;
#82 = ORIENTED_EDGE ( 'NONE', *, *, #101, .T. ) ;
#83 = FACE_BOUND ( 'NONE', #164, .T. ) ;
#84 = EDGE_CURVE ( 'NONE', #139, #225, #140, .T. ) ;
#85 = ORIENTED_EDGE ( 'NONE', *, *, #223, .F. ) ;
#86 = LINE ( 'NONE', #246, #254 ) ;
#87 = UNCERTAINTY_MEASURE_WITH_UNIT (LENGTH_MEASURE( 1.000000000000000082E-05 ), #125, 'distance_accuracy_value', 'NONE');
#88 = LOCAL_TIME ( 14, 25, 4.000000000000000000, #142 ) ;
#89 = APPROVAL ( #173, 'UNSPECIFIED' ) ;
#90 = ORIENTED_EDGE ( 'NONE', *, *, #281, .T. ) ;
#91 = DIRECTION ( 'NONE',  ( -0.0000000000000000000, -0.0000000000000000000, 1.000000000000000000 ) ) ;
#92 = ORIENTED_EDGE ( 'NONE', *, *, #143, .T. ) ;
#93 = LINE ( 'NONE', #9, #40 ) ;
#94 = DIRECTION ( 'NONE',  ( 0.0000000000000000000, 1.000000000000000000, 0.0000000000000000000 ) ) ;
#95 = CARTESIAN_POINT ( 'NONE',  ( 5.099999999999998757, 0.0000000000000000000, 10.00000000000000000 ) ) ;
#96 = VERTEX_POINT ( 'NONE', #258 ) ;
#97 = DIRECTION ( 'NONE',  ( 1.000000000000000000, 0.0000000000000000000, 0.0000000000000000000 ) ) ;
#98 = AXIS2_PLACEMENT_3D ( 'NONE', #168, #197, #117 ) ;
#99 = PLANE ( 'NONE',  #7 ) ;
#100 = ORIENTED_EDGE ( 'NONE', *, *, #124, .T. ) ;
#101 = EDGE_CURVE ( 'NONE', #243, #158, #257, .T. ) ;
#102 = MANIFOLD_SOLID_BREP ( 'M12 Tapped Hole1', #107 ) ;
#103 = DIRECTION ( 'NONE',  ( 0.0000000000000000000, 0.0000000000000000000, -1.000000000000000000 ) ) ;
#104 = CARTESIAN_POINT ( 'NONE',  ( -49.99999999999995026, 14.99999999999999645, 0.0000000000000000000 ) ) ;
#105 = DIRECTION ( 'NONE',  ( 1.000000000000000000, 0.0000000000000000000, 0.0000000000000000000 ) ) ;
#106 = CC_DESIGN_PERSON_AND_ORGANIZATION_ASSIGNMENT ( #242, #198, ( #68 ) ) ;
#107 = CLOSED_SHELL ( 'NONE', ( #221, #123, #128, #228, #80, #245, #226, #271 ) ) ;
#108 = VECTOR ( 'NONE', #297, 1000.000000000000000 ) ;
#109 = EDGE_LOOP ( 'NONE', ( #210, #113, #1, #287 ) ) ;
#110 = ORIENTED_EDGE ( 'NONE', *, *, #212, .F. ) ;
#111 = CARTESIAN_POINT ( 'NONE',  ( -49.99999999999995026, -15.00000000000000000, 10.00000000000000000 ) ) ;
#112 = EDGE_CURVE ( 'NONE', #158, #163, #3, .T. ) ;
#113 = ORIENTED_EDGE ( 'NONE', *, *, #177, .F. ) ;
#114 = CC_DESIGN_APPROVAL ( #89, ( #68 ) ) ;
#115 = CARTESIAN_POINT ( 'NONE',  ( -5.099999999999997868, 6.245698675651498867E-16, 0.0000000000000000000 ) ) ;
#116 = CC_DESIGN_PERSON_AND_ORGANIZATION_ASSIGNMENT ( #179, #146, ( #155 ) ) ;
#117 = DIRECTION ( 'NONE',  ( 0.0000000000000000000, 0.0000000000000000000, 1.000000000000000000 ) ) ;
#118 = VERTEX_POINT ( 'NONE', #191 ) ;
#119 = VERTEX_POINT ( 'NONE', #209 ) ;
#120 = DIRECTION ( 'NONE',  ( 0.0000000000000000000, 1.000000000000000000, 0.0000000000000000000 ) ) ;
#121 = APPROVAL_STATUS ( 'not_yet_approved' ) ;
#122 = COORDINATED_UNIVERSAL_TIME_OFFSET ( 2, 0, .AHEAD. ) ;
#123 = ADVANCED_FACE ( 'NONE', ( #187 ), #236, .F. ) ;
#124 = EDGE_CURVE ( 'NONE', #195, #225, #279, .T. ) ;
#125 =( LENGTH_UNIT ( ) NAMED_UNIT ( * ) SI_UNIT ( .MILLI., .METRE. ) );
#126 = APPROVAL_DATE_TIME ( #169, #203 ) ;
#127 = APPROVAL_PERSON_ORGANIZATION ( #176, #203, #298 ) ;
#128 = ADVANCED_FACE ( 'NONE', ( #227 ), #291, .F. ) ;
#129 = ORIENTED_EDGE ( 'NONE', *, *, #131, .F. ) ;
#130 = VECTOR ( 'NONE', #213, 1000.000000000000000 ) ;
#131 = EDGE_CURVE ( 'NONE', #73, #77, #78, .T. ) ;
#132 = VECTOR ( 'NONE', #302, 1000.000000000000000 ) ;
#133 = CALENDAR_DATE ( 2019, 29, 5 ) ;
#134 = CC_DESIGN_DATE_AND_TIME_ASSIGNMENT ( #237, #268, ( #68 ) ) ;
#135 = APPROVAL_PERSON_ORGANIZATION ( #162, #89, #296 ) ;
#136 = SECURITY_CLASSIFICATION ( '', '', #300 ) ;
#137 = ORIENTED_EDGE ( 'NONE', *, *, #131, .T. ) ;
#138 = DIRECTION ( 'NONE',  ( -1.000000000000000000, -0.0000000000000000000, -0.0000000000000000000 ) ) ;
#139 = VERTEX_POINT ( 'NONE', #115 ) ;
#140 = LINE ( 'NONE', #141, #60 ) ;
#141 = CARTESIAN_POINT ( 'NONE',  ( -5.099999999999998757, 6.245698675651499853E-16, 10.00000000000000000 ) ) ;
#142 = COORDINATED_UNIVERSAL_TIME_OFFSET ( 2, 0, .AHEAD. ) ;
#143 = EDGE_CURVE ( 'NONE', #118, #139, #299, .T. ) ;
#144 = CARTESIAN_POINT ( 'NONE',  ( -49.99999999999995026, -15.00000000000000000, 10.00000000000000000 ) ) ;
#145 = VECTOR ( 'NONE', #215, 1000.000000000000000 ) ;
#146 = PERSON_AND_ORGANIZATION_ROLE ( 'design_supplier' ) ;
#147 = DIRECTION ( 'NONE',  ( 0.0000000000000000000, -0.0000000000000000000, -1.000000000000000000 ) ) ;
#148 = PERSON_AND_ORGANIZATION_ROLE ( 'classification_officer' ) ;
#149 = DIRECTION ( 'NONE',  ( 0.0000000000000000000, 0.0000000000000000000, -1.000000000000000000 ) ) ;
#150 = EDGE_CURVE ( 'NONE', #118, #195, #23, .T. ) ;
#151 = EDGE_LOOP ( 'NONE', ( #216, #28 ) ) ;
#152 = ORIENTED_EDGE ( 'NONE', *, *, #181, .T. ) ;
#153 = DIRECTION ( 'NONE',  ( 1.000000000000000000, 0.0000000000000000000, 0.0000000000000000000 ) ) ;
#154 = DIRECTION ( 'NONE',  ( -0.0000000000000000000, -0.0000000000000000000, 1.000000000000000000 ) ) ;
#155 = PRODUCT_DEFINITION_FORMATION_WITH_SPECIFIED_SOURCE ( 'ANY', '', #311, .NOT_KNOWN. ) ;
#156 = CIRCLE ( 'NONE', #282, 5.099999999999998757 ) ;
#157 = ORIENTED_EDGE ( 'NONE', *, *, #230, .F. ) ;
#158 = VERTEX_POINT ( 'NONE', #217 ) ;
#159 = ORIENTED_EDGE ( 'NONE', *, *, #166, .F. ) ;
#160 = LINE ( 'NONE', #38, #12 ) ;
#161 = EDGE_CURVE ( 'NONE', #139, #118, #288, .T. ) ;
#162 = PERSON_AND_ORGANIZATION ( #253, #4 ) ;
#163 = VERTEX_POINT ( 'NONE', #241 ) ;
#164 = EDGE_LOOP ( 'NONE', ( #92, #180 ) ) ;
#165 = LINE ( 'NONE', #37, #32 ) ;
#166 = EDGE_CURVE ( 'NONE', #73, #243, #211, .T. ) ;
#167 = AXIS2_PLACEMENT_3D ( 'NONE', #55, #154, #278 ) ;
#168 = CARTESIAN_POINT ( 'NONE',  ( 50.00000000000004974, -15.00000000000000000, 10.00000000000000000 ) ) ;
#169 = DATE_AND_TIME ( #185, #252 ) ;
#170 = DIRECTION ( 'NONE',  ( -0.0000000000000000000, -0.0000000000000000000, 1.000000000000000000 ) ) ;
#171 = CARTESIAN_POINT ( 'NONE',  ( 0.0000000000000000000, 0.0000000000000000000, 10.00000000000000000 ) ) ;
#172 = LINE ( 'NONE', #294, #145 ) ;
#173 = APPROVAL_STATUS ( 'not_yet_approved' ) ;
#174 = CARTESIAN_POINT ( 'NONE',  ( 0.0000000000000000000, 0.0000000000000000000, 10.00000000000000000 ) ) ;
#175 = DIRECTION ( 'NONE',  ( -1.000000000000000000, 0.0000000000000000000, -0.0000000000000000000 ) ) ;
#176 = PERSON_AND_ORGANIZATION ( #253, #4 ) ;
#177 = EDGE_CURVE ( 'NONE', #163, #96, #160, .T. ) ;
#178 =( NAMED_UNIT ( * ) SI_UNIT ( $, .STERADIAN. ) SOLID_ANGLE_UNIT ( ) );
#179 = PERSON_AND_ORGANIZATION ( #253, #4 ) ;
#180 = ORIENTED_EDGE ( 'NONE', *, *, #161, .T. ) ;
#181 = EDGE_CURVE ( 'NONE', #96, #77, #172, .T. ) ;
#182 = PERSON_AND_ORGANIZATION ( #253, #4 ) ;
#183 = ORIENTED_EDGE ( 'NONE', *, *, #84, .T. ) ;
#184 = AXIS2_PLACEMENT_3D ( 'NONE', #238, #52, #239 ) ;
#185 = CALENDAR_DATE ( 2019, 29, 5 ) ;
#186 = CC_DESIGN_PERSON_AND_ORGANIZATION_ASSIGNMENT ( #305, #148, ( #136 ) ) ;
#187 = FACE_OUTER_BOUND ( 'NONE', #306, .T. ) ;
#188 = LOCAL_TIME ( 14, 25, 4.000000000000000000, #8 ) ;
#189 = DIRECTION ( 'NONE',  ( 0.0000000000000000000, -0.0000000000000000000, 1.000000000000000000 ) ) ;
#190 = EDGE_CURVE ( 'NONE', #119, #49, #93, .T. ) ;
#191 = CARTESIAN_POINT ( 'NONE',  ( 5.099999999999997868, 0.0000000000000000000, 0.0000000000000000000 ) ) ;
#192 = COORDINATED_UNIVERSAL_TIME_OFFSET ( 2, 0, .AHEAD. ) ;
#193 = ADVANCED_BREP_SHAPE_REPRESENTATION ( '1.23.F03', ( #102, #43 ), #19 ) ;
#194 = CARTESIAN_POINT ( 'NONE',  ( -49.99999999999995026, -15.00000000000000000, 10.00000000000000000 ) ) ;
#195 = VERTEX_POINT ( 'NONE', #33 ) ;
#196 = DIRECTION ( 'NONE',  ( 1.000000000000000000, 0.0000000000000000000, 0.0000000000000000000 ) ) ;
#197 = DIRECTION ( 'NONE',  ( -1.000000000000000000, 0.0000000000000000000, 0.0000000000000000000 ) ) ;
#198 = PERSON_AND_ORGANIZATION_ROLE ( 'creator' ) ;
#199 = EDGE_CURVE ( 'NONE', #163, #73, #64, .T. ) ;
#200 = APPLICATION_CONTEXT ( 'configuration controlled 3d designs of mechanical parts and assemblies' ) ;
#201 = CARTESIAN_POINT ( 'NONE',  ( -49.99999999999995026, -15.00000000000000000, 0.0000000000000000000 ) ) ;
#202 = CARTESIAN_POINT ( 'NONE',  ( 0.0000000000000000000, 0.0000000000000000000, 10.00000000000000000 ) ) ;
#203 = APPROVAL ( #121, 'UNSPECIFIED' ) ;
#204 = ORIENTED_EDGE ( 'NONE', *, *, #112, .T. ) ;
#205 = ORIENTED_EDGE ( 'NONE', *, *, #150, .T. ) ;
#206 = EDGE_LOOP ( 'NONE', ( #152, #129, #72, #59 ) ) ;
#207 = APPROVAL_PERSON_ORGANIZATION ( #67, #13, #15 ) ;
#208 = VECTOR ( 'NONE', #74, 1000.000000000000000 ) ;
#209 = CARTESIAN_POINT ( 'NONE',  ( 50.00000000000004974, -15.00000000000000000, 0.0000000000000000000 ) ) ;
#210 = ORIENTED_EDGE ( 'NONE', *, *, #249, .T. ) ;
#211 = LINE ( 'NONE', #144, #34 ) ;
#212 = EDGE_CURVE ( 'NONE', #243, #119, #86, .T. ) ;
#213 = DIRECTION ( 'NONE',  ( 0.0000000000000000000, 1.000000000000000000, 0.0000000000000000000 ) ) ;
#214 = DIRECTION ( 'NONE',  ( -0.0000000000000000000, -0.0000000000000000000, 1.000000000000000000 ) ) ;
#215 = DIRECTION ( 'NONE',  ( -0.0000000000000000000, -1.000000000000000000, -0.0000000000000000000 ) ) ;
#216 = ORIENTED_EDGE ( 'NONE', *, *, #124, .F. ) ;
#217 = CARTESIAN_POINT ( 'NONE',  ( 50.00000000000004974, 14.99999999999999645, 10.00000000000000000 ) ) ;
#218 = PLANE ( 'NONE',  #233 ) ;
#219 = DIRECTION ( 'NONE',  ( -0.0000000000000000000, -0.0000000000000000000, -1.000000000000000000 ) ) ;
#220 = ORIENTED_EDGE ( 'NONE', *, *, #199, .T. ) ;
#221 = ADVANCED_FACE ( 'NONE', ( #53 ), #29, .F. ) ;
#222 = DIRECTION ( 'NONE',  ( 0.0000000000000000000, 0.0000000000000000000, -1.000000000000000000 ) ) ;
#223 = EDGE_CURVE ( 'NONE', #158, #49, #165, .T. ) ;
#224 = PLANE ( 'NONE',  #251 ) ;
#225 = VERTEX_POINT ( 'NONE', #14 ) ;
#226 = ADVANCED_FACE ( 'NONE', ( #83, #229 ), #99, .T. ) ;
#227 = FACE_OUTER_BOUND ( 'NONE', #109, .T. ) ;
#228 = ADVANCED_FACE ( 'NONE', ( #25 ), #218, .F. ) ;
#229 = FACE_OUTER_BOUND ( 'NONE', #45, .T. ) ;
#230 = EDGE_CURVE ( 'NONE', #77, #119, #11, .T. ) ;
#231 = FACE_OUTER_BOUND ( 'NONE', #264, .T. ) ;
#232 = ORIENTED_EDGE ( 'NONE', *, *, #190, .T. ) ;
#233 = AXIS2_PLACEMENT_3D ( 'NONE', #304, #105, #103 ) ;
#234 = DESIGN_CONTEXT ( 'detailed design', #286, 'design' ) ;
#235 = LOCAL_TIME ( 14, 25, 4.000000000000000000, #192 ) ;
#236 = PLANE ( 'NONE',  #98 ) ;
#237 = DATE_AND_TIME ( #61, #290 ) ;
#238 = CARTESIAN_POINT ( 'NONE',  ( 0.0000000000000000000, 0.0000000000000000000, 0.0000000000000000000 ) ) ;
#239 = DIRECTION ( 'NONE',  ( 1.000000000000000000, 0.0000000000000000000, 0.0000000000000000000 ) ) ;
#240 = PERSON_AND_ORGANIZATION ( #253, #4 ) ;
#241 = CARTESIAN_POINT ( 'NONE',  ( -49.99999999999995026, 14.99999999999999645, 10.00000000000000000 ) ) ;
#242 = PERSON_AND_ORGANIZATION ( #253, #4 ) ;
#243 = VERTEX_POINT ( 'NONE', #57 ) ;
#244 = ORIENTED_EDGE ( 'NONE', *, *, #101, .F. ) ;
#245 = ADVANCED_FACE ( 'NONE', ( #310, #231 ), #224, .F. ) ;
#246 = CARTESIAN_POINT ( 'NONE',  ( 50.00000000000004974, -15.00000000000000000, 10.00000000000000000 ) ) ;
#247 = APPROVAL_STATUS ( 'not_yet_approved' ) ;
#248 = DIRECTION ( 'NONE',  ( 0.0000000000000000000, 0.0000000000000000000, 1.000000000000000000 ) ) ;
#249 = EDGE_CURVE ( 'NONE', #49, #96, #18, .T. ) ;
#250 = DIRECTION ( 'NONE',  ( -1.000000000000000000, 0.0000000000000000000, -0.0000000000000000000 ) ) ;
#251 = AXIS2_PLACEMENT_3D ( 'NONE', #174, #222, #175 ) ;
#252 = LOCAL_TIME ( 14, 25, 4.000000000000000000, #63 ) ;
#253 = PERSON ( 'UNSPECIFIED', 'UNSPECIFIED', 'UNSPECIFIED', ('UNSPECIFIED'), ('UNSPECIFIED'), ('UNSPECIFIED') ) ;
#254 = VECTOR ( 'NONE', #36, 1000.000000000000000 ) ;
#255 = DATE_AND_TIME ( #70, #188 ) ;
#256 = EDGE_LOOP ( 'NONE', ( #30, #283, #205, #100 ) ) ;
#257 = LINE ( 'NONE', #50, #130 ) ;
#258 = CARTESIAN_POINT ( 'NONE',  ( -49.99999999999995026, 14.99999999999999645, 0.0000000000000000000 ) ) ;
#259 = ORIENTED_EDGE ( 'NONE', *, *, #230, .T. ) ;
#260 = CARTESIAN_POINT ( 'NONE',  ( -49.99999999999995026, -15.00000000000000000, 10.00000000000000000 ) ) ;
#261 = SHAPE_DEFINITION_REPRESENTATION ( #48, #193 ) ;
#262 = DIRECTION ( 'NONE',  ( 0.0000000000000000000, -1.000000000000000000, 0.0000000000000000000 ) ) ;
#263 = AXIS2_PLACEMENT_3D ( 'NONE', #35, #262, #147 ) ;
#264 = EDGE_LOOP ( 'NONE', ( #82, #204, #220, #284 ) ) ;
#265 = EDGE_LOOP ( 'NONE', ( #273, #183, #90, #47 ) ) ;
#266 = CARTESIAN_POINT ( 'NONE',  ( -49.99999999999995026, -15.00000000000000000, 10.00000000000000000 ) ) ;
#267 = CC_DESIGN_APPROVAL ( #203, ( #155 ) ) ;
#268 = DATE_TIME_ROLE ( 'creation_date' ) ;
#269 = CARTESIAN_POINT ( 'NONE',  ( 0.0000000000000000000, 0.0000000000000000000, 0.0000000000000000000 ) ) ;
#270 = PERSON_AND_ORGANIZATION_ROLE ( 'creator' ) ;
#271 = ADVANCED_FACE ( 'NONE', ( #308 ), #66, .F. ) ;
#272 =( NAMED_UNIT ( * ) PLANE_ANGLE_UNIT ( ) SI_UNIT ( $, .RADIAN. ) );
#273 = ORIENTED_EDGE ( 'NONE', *, *, #161, .F. ) ;
#274 = ORIENTED_EDGE ( 'NONE', *, *, #212, .T. ) ;
#275 = DATE_AND_TIME ( #20, #88 ) ;
#276 = PERSON_AND_ORGANIZATION_ROLE ( 'design_owner' ) ;
#277 = AXIS2_PLACEMENT_3D ( 'NONE', #71, #170, #196 ) ;
#278 = DIRECTION ( 'NONE',  ( 1.000000000000000000, 0.0000000000000000000, 0.0000000000000000000 ) ) ;
#279 = CIRCLE ( 'NONE', #81, 5.099999999999998757 ) ;
#280 = ORIENTED_EDGE ( 'NONE', *, *, #190, .F. ) ;
#281 = EDGE_CURVE ( 'NONE', #225, #195, #156, .T. ) ;
#282 = AXIS2_PLACEMENT_3D ( 'NONE', #202, #301, #76 ) ;
#283 = ORIENTED_EDGE ( 'NONE', *, *, #143, .F. ) ;
#284 = ORIENTED_EDGE ( 'NONE', *, *, #166, .T. ) ;
#285 = PRODUCT_RELATED_PRODUCT_CATEGORY ( 'detail', '', ( #311 ) ) ;
#286 = APPLICATION_CONTEXT ( 'configuration controlled 3d designs of mechanical parts and assemblies' ) ;
#287 = ORIENTED_EDGE ( 'NONE', *, *, #223, .T. ) ;
#288 = CIRCLE ( 'NONE', #27, 5.099999999999997868 ) ;
#289 = AXIS2_PLACEMENT_3D ( 'NONE', #111, #94, #189 ) ;
#290 = LOCAL_TIME ( 14, 25, 4.000000000000000000, #122 ) ;
#291 = PLANE ( 'NONE',  #263 ) ;
#292 = FACE_OUTER_BOUND ( 'NONE', #44, .T. ) ;
#293 = CC_DESIGN_SECURITY_CLASSIFICATION ( #136, ( #155 ) ) ;
#294 = CARTESIAN_POINT ( 'NONE',  ( -49.99999999999995026, -15.00000000000000000, 0.0000000000000000000 ) ) ;
#295 = DIRECTION ( 'NONE',  ( 1.000000000000000000, 0.0000000000000000000, 0.0000000000000000000 ) ) ;
#296 = APPROVAL_ROLE ( '' ) ;
#297 = DIRECTION ( 'NONE',  ( -0.0000000000000000000, -1.000000000000000000, -0.0000000000000000000 ) ) ;
#298 = APPROVAL_ROLE ( '' ) ;
#299 = CIRCLE ( 'NONE', #184, 5.099999999999997868 ) ;
#300 = SECURITY_CLASSIFICATION_LEVEL ( 'unclassified' ) ;
#301 = DIRECTION ( 'NONE',  ( -0.0000000000000000000, -0.0000000000000000000, 1.000000000000000000 ) ) ;
#302 = DIRECTION ( 'NONE',  ( 1.000000000000000000, 0.0000000000000000000, 0.0000000000000000000 ) ) ;
#303 = APPROVAL_DATE_TIME ( #255, #89 ) ;
#304 = CARTESIAN_POINT ( 'NONE',  ( -49.99999999999995026, -15.00000000000000000, 10.00000000000000000 ) ) ;
#305 = PERSON_AND_ORGANIZATION ( #253, #4 ) ;
#306 = EDGE_LOOP ( 'NONE', ( #232, #85, #244, #274 ) ) ;
#307 = VECTOR ( 'NONE', #138, 1000.000000000000000 ) ;
#308 = FACE_OUTER_BOUND ( 'NONE', #256, .T. ) ;
#309 = CC_DESIGN_DATE_AND_TIME_ASSIGNMENT ( #79, #10, ( #136 ) ) ;
#310 = FACE_BOUND ( 'NONE', #151, .T. ) ;
#311 = PRODUCT ( '1.23.F03', '1.23.F03', '', ( #17 ) ) ;
ENDSEC;
END-ISO-10303-21;
