ISO-10303-21;
HEADER;
FILE_DESCRIPTION (( 'STEP AP203' ),
    '1' );
FILE_NAME ('1.23.F06.STEP',
    '2019-05-29T11:48:46',
    ( '' ),
    ( '' ),
    'SwSTEP 2.0',
    'SolidWorks 2018',
    '' );
FILE_SCHEMA (( 'CONFIG_CONTROL_DESIGN' ));
ENDSEC;

DATA;
#1 = DIRECTION ( 'NONE',  ( 1.000000000000000000, 0.0000000000000000000, 0.0000000000000000000 ) ) ;
#2 = LINE ( 'NONE', #4, #80 ) ;
#3 = ORIENTED_EDGE ( 'NONE', *, *, #258, .T. ) ;
#4 = CARTESIAN_POINT ( 'NONE',  ( 0.0000000000000000000, 30.00000000000000000, 10.00000000000000000 ) ) ;
#5 = PERSON_AND_ORGANIZATION_ROLE ( 'creator' ) ;
#6 = ORIENTED_EDGE ( 'NONE', *, *, #43, .F. ) ;
#7 = ADVANCED_FACE ( 'NONE', ( #255 ), #11, .F. ) ;
#8 = ORIENTED_EDGE ( 'NONE', *, *, #128, .F. ) ;
#9 = EDGE_CURVE ( 'NONE', #281, #200, #238, .T. ) ;
#10 = PERSON_AND_ORGANIZATION ( #95, #112 ) ;
#11 = CYLINDRICAL_SURFACE ( 'NONE', #54, 5.099999999999991651 ) ;
#12 = EDGE_LOOP ( 'NONE', ( #143, #158, #278, #32 ) ) ;
#13 = LINE ( 'NONE', #309, #199 ) ;
#14 = VERTEX_POINT ( 'NONE', #82 ) ;
#15 = DIRECTION ( 'NONE',  ( 0.0000000000000000000, 0.0000000000000000000, -1.000000000000000000 ) ) ;
#16 = LOCAL_TIME ( 14, 48, 46.00000000000000000, #123 ) ;
#17 = CARTESIAN_POINT ( 'NONE',  ( 0.0000000000000000000, 30.00000000000000000, 0.0000000000000000000 ) ) ;
#18 = ADVANCED_FACE ( 'NONE', ( #236 ), #135, .F. ) ;
#19 = CC_DESIGN_APPROVAL ( #304, ( #172 ) ) ;
#20 = DATE_TIME_ROLE ( 'classification_date' ) ;
#21 = DIRECTION ( 'NONE',  ( 0.0000000000000000000, 1.000000000000000000, 0.0000000000000000000 ) ) ;
#22 = DIRECTION ( 'NONE',  ( 0.0000000000000000000, -0.0000000000000000000, -1.000000000000000000 ) ) ;
#23 = EDGE_CURVE ( 'NONE', #129, #59, #30, .T. ) ;
#24 = EDGE_LOOP ( 'NONE', ( #262, #194, #285, #256 ) ) ;
#25 = LOCAL_TIME ( 14, 48, 46.00000000000000000, #201 ) ;
#26 = EDGE_CURVE ( 'NONE', #230, #58, #13, .T. ) ;
#27 = ORIENTED_EDGE ( 'NONE', *, *, #26, .F. ) ;
#28 = SHAPE_DEFINITION_REPRESENTATION ( #210, #140 ) ;
#29 = FACE_BOUND ( 'NONE', #67, .T. ) ;
#30 = CIRCLE ( 'NONE', #84, 5.099999999999996980 ) ;
#31 = CARTESIAN_POINT ( 'NONE',  ( 0.0000000000000000000, 30.00000000000000000, 10.00000000000000000 ) ) ;
#32 = ORIENTED_EDGE ( 'NONE', *, *, #249, .T. ) ;
#33 = LINE ( 'NONE', #93, #41 ) ;
#34 = AXIS2_PLACEMENT_3D ( 'NONE', #66, #189, #39 ) ;
#35 = PERSON_AND_ORGANIZATION ( #95, #112 ) ;
#36 = ORIENTED_EDGE ( 'NONE', *, *, #237, .T. ) ;
#37 = DIRECTION ( 'NONE',  ( -1.000000000000000000, 0.0000000000000000000, 0.0000000000000000000 ) ) ;
#38 = DIRECTION ( 'NONE',  ( 1.000000000000000000, 0.0000000000000000000, 0.0000000000000000000 ) ) ;
#39 = DIRECTION ( 'NONE',  ( -1.000000000000000000, 0.0000000000000000000, 0.0000000000000000000 ) ) ;
#40 = CYLINDRICAL_SURFACE ( 'NONE', #261, 5.099999999999991651 ) ;
#41 = VECTOR ( 'NONE', #48, 1000.000000000000000 ) ;
#42 = CARTESIAN_POINT ( 'NONE',  ( 17.09999999999999076, 15.00000000000000000, 0.0000000000000000000 ) ) ;
#43 = EDGE_CURVE ( 'NONE', #53, #156, #97, .T. ) ;
#44 = DIRECTION ( 'NONE',  ( 0.0000000000000000000, -0.0000000000000000000, 1.000000000000000000 ) ) ;
#45 = DIRECTION ( 'NONE',  ( -1.000000000000000000, -0.0000000000000000000, -0.0000000000000000000 ) ) ;
#46 = AXIS2_PLACEMENT_3D ( 'NONE', #264, #216, #265 ) ;
#47 = ORIENTED_EDGE ( 'NONE', *, *, #218, .F. ) ;
#48 = DIRECTION ( 'NONE',  ( -0.0000000000000000000, -0.0000000000000000000, -1.000000000000000000 ) ) ;
#49 = ORIENTED_EDGE ( 'NONE', *, *, #307, .T. ) ;
#50 = CARTESIAN_POINT ( 'NONE',  ( 0.0000000000000000000, 0.0000000000000000000, 10.00000000000000000 ) ) ;
#51 = PRODUCT ( '1.23.F06', '1.23.F06', '', ( #124 ) ) ;
#52 = UNCERTAINTY_MEASURE_WITH_UNIT (LENGTH_MEASURE( 1.000000000000000082E-05 ), #74, 'distance_accuracy_value', 'NONE');
#53 = VERTEX_POINT ( 'NONE', #68 ) ;
#54 = AXIS2_PLACEMENT_3D ( 'NONE', #305, #163, #114 ) ;
#55 = PERSON_AND_ORGANIZATION ( #95, #112 ) ;
#56 = EDGE_LOOP ( 'NONE', ( #205, #138, #98, #227 ) ) ;
#57 = LINE ( 'NONE', #96, #165 ) ;
#58 = VERTEX_POINT ( 'NONE', #142 ) ;
#59 = VERTEX_POINT ( 'NONE', #241 ) ;
#60 = VECTOR ( 'NONE', #193, 1000.000000000000000 ) ;
#61 = COORDINATED_UNIVERSAL_TIME_OFFSET ( 2, 0, .AHEAD. ) ;
#62 = DIRECTION ( 'NONE',  ( 0.0000000000000000000, 0.0000000000000000000, 1.000000000000000000 ) ) ;
#63 = LINE ( 'NONE', #292, #100 ) ;
#64 = ORIENTED_EDGE ( 'NONE', *, *, #119, .T. ) ;
#65 = CARTESIAN_POINT ( 'NONE',  ( 100.0000000000000000, 0.0000000000000000000, 0.0000000000000000000 ) ) ;
#66 = CARTESIAN_POINT ( 'NONE',  ( 12.00000000000000000, 15.00000000000000000, 9.999999999999998224 ) ) ;
#67 = EDGE_LOOP ( 'NONE', ( #64, #203 ) ) ;
#68 = CARTESIAN_POINT ( 'NONE',  ( 100.0000000000000000, 0.0000000000000000000, 0.0000000000000000000 ) ) ;
#69 = CARTESIAN_POINT ( 'NONE',  ( 17.09999999999999787, 15.00000000000000000, 9.999999999999998224 ) ) ;
#70 = ORIENTED_EDGE ( 'NONE', *, *, #242, .F. ) ;
#71 = ORIENTED_EDGE ( 'NONE', *, *, #134, .T. ) ;
#72 = DIRECTION ( 'NONE',  ( 1.000000000000000000, 0.0000000000000000000, 0.0000000000000000000 ) ) ;
#73 = CALENDAR_DATE ( 2019, 29, 5 ) ;
#74 =( LENGTH_UNIT ( ) NAMED_UNIT ( * ) SI_UNIT ( .MILLI., .METRE. ) );
#75 = APPLICATION_CONTEXT ( 'configuration controlled 3d designs of mechanical parts and assemblies' ) ;
#76 = PERSON_AND_ORGANIZATION ( #95, #112 ) ;
#77 = ADVANCED_FACE ( 'NONE', ( #149 ), #40, .F. ) ;
#78 = VECTOR ( 'NONE', #191, 1000.000000000000000 ) ;
#79 = EDGE_LOOP ( 'NONE', ( #260, #105, #27, #253 ) ) ;
#80 = VECTOR ( 'NONE', #45, 1000.000000000000000 ) ;
#81 = EDGE_CURVE ( 'NONE', #14, #110, #284, .T. ) ;
#82 = CARTESIAN_POINT ( 'NONE',  ( 17.09999999999998721, 15.00000000000000000, -9.307315673519861793E-16 ) ) ;
#83 = AXIS2_PLACEMENT_3D ( 'NONE', #178, #246, #22 ) ;
#84 = AXIS2_PLACEMENT_3D ( 'NONE', #168, #212, #37 ) ;
#85 = DIRECTION ( 'NONE',  ( -1.000000000000000000, 0.0000000000000000000, 0.0000000000000000000 ) ) ;
#86 = VERTEX_POINT ( 'NONE', #190 ) ;
#87 = DIRECTION ( 'NONE',  ( -0.0000000000000000000, -0.0000000000000000000, -1.000000000000000000 ) ) ;
#88 = CALENDAR_DATE ( 2019, 29, 5 ) ;
#89 = APPROVAL_PERSON_ORGANIZATION ( #273, #211, #155 ) ;
#90 = PLANE ( 'NONE',  #269 ) ;
#91 = MANIFOLD_SOLID_BREP ( 'M12 Tapped Hole1', #275 ) ;
#92 = APPROVAL_STATUS ( 'not_yet_approved' ) ;
#93 = CARTESIAN_POINT ( 'NONE',  ( 6.900000000000008349, 15.00000000000000000, 0.0000000000000000000 ) ) ;
#94 = AXIS2_PLACEMENT_3D ( 'NONE', #303, #162, #62 ) ;
#95 = PERSON ( 'UNSPECIFIED', 'UNSPECIFIED', 'UNSPECIFIED', ('UNSPECIFIED'), ('UNSPECIFIED'), ('UNSPECIFIED') ) ;
#96 = CARTESIAN_POINT ( 'NONE',  ( 0.0000000000000000000, 0.0000000000000000000, 10.00000000000000000 ) ) ;
#97 = LINE ( 'NONE', #65, #280 ) ;
#98 = ORIENTED_EDGE ( 'NONE', *, *, #237, .F. ) ;
#99 = DIRECTION ( 'NONE',  ( -1.000000000000000000, 0.0000000000000000000, -0.0000000000000000000 ) ) ;
#100 = VECTOR ( 'NONE', #198, 1000.000000000000000 ) ;
#101 = PLANE ( 'NONE',  #137 ) ;
#102 = CALENDAR_DATE ( 2019, 29, 5 ) ;
#103 = APPROVAL_PERSON_ORGANIZATION ( #295, #159, #152 ) ;
#104 = VECTOR ( 'NONE', #170, 1000.000000000000000 ) ;
#105 = ORIENTED_EDGE ( 'NONE', *, *, #249, .F. ) ;
#106 = AXIS2_PLACEMENT_3D ( 'NONE', #288, #145, #85 ) ;
#107 = LOCAL_TIME ( 14, 48, 46.00000000000000000, #61 ) ;
#108 = CC_DESIGN_APPROVAL ( #211, ( #132 ) ) ;
#109 = FACE_OUTER_BOUND ( 'NONE', #183, .T. ) ;
#110 = VERTEX_POINT ( 'NONE', #267 ) ;
#111 = EDGE_LOOP ( 'NONE', ( #131, #71, #234, #259 ) ) ;
#112 = ORGANIZATION ( 'UNSPECIFIED', 'UNSPECIFIED', '' ) ;
#113 = ORIENTED_EDGE ( 'NONE', *, *, #161, .F. ) ;
#114 = DIRECTION ( 'NONE',  ( -1.000000000000000000, 0.0000000000000000000, 0.0000000000000000000 ) ) ;
#115 = CARTESIAN_POINT ( 'NONE',  ( 100.0000000000000000, 0.0000000000000000000, 10.00000000000000000 ) ) ;
#116 = PLANE ( 'NONE',  #239 ) ;
#117 = DIRECTION ( 'NONE',  ( -0.0000000000000000000, -0.0000000000000000000, -1.000000000000000000 ) ) ;
#118 = APPROVAL_DATE_TIME ( #233, #211 ) ;
#119 = EDGE_CURVE ( 'NONE', #59, #129, #157, .T. ) ;
#120 = PERSON_AND_ORGANIZATION ( #95, #112 ) ;
#121 = PLANE ( 'NONE',  #122 ) ;
#122 = AXIS2_PLACEMENT_3D ( 'NONE', #188, #38, #15 ) ;
#123 = COORDINATED_UNIVERSAL_TIME_OFFSET ( 2, 0, .AHEAD. ) ;
#124 = MECHANICAL_CONTEXT ( 'NONE', #75, 'mechanical' ) ;
#125 = FACE_OUTER_BOUND ( 'NONE', #24, .T. ) ;
#126 = CC_DESIGN_PERSON_AND_ORGANIZATION_ASSIGNMENT ( #10, #244, ( #51 ) ) ;
#127 = APPROVAL_STATUS ( 'not_yet_approved' ) ;
#128 = EDGE_CURVE ( 'NONE', #110, #14, #186, .T. ) ;
#129 = VERTEX_POINT ( 'NONE', #69 ) ;
#130 = LINE ( 'NONE', #42, #202 ) ;
#131 = ORIENTED_EDGE ( 'NONE', *, *, #23, .F. ) ;
#132 = PRODUCT_DEFINITION ( 'UNKNOWN', '', #172, #174 ) ;
#133 = ORIENTED_EDGE ( 'NONE', *, *, #296, .T. ) ;
#134 = EDGE_CURVE ( 'NONE', #129, #14, #130, .T. ) ;
#135 = PLANE ( 'NONE',  #94 ) ;
#136 = PERSON_AND_ORGANIZATION ( #95, #112 ) ;
#137 = AXIS2_PLACEMENT_3D ( 'NONE', #50, #21, #44 ) ;
#138 = ORIENTED_EDGE ( 'NONE', *, *, #169, .F. ) ;
#139 = LINE ( 'NONE', #224, #250 ) ;
#140 = ADVANCED_BREP_SHAPE_REPRESENTATION ( '1.23.F06', ( #91, #231 ), #207 ) ;
#141 = CC_DESIGN_DATE_AND_TIME_ASSIGNMENT ( #177, #179, ( #132 ) ) ;
#142 = CARTESIAN_POINT ( 'NONE',  ( 100.0000000000000000, 30.00000000000000000, 10.00000000000000000 ) ) ;
#143 = ORIENTED_EDGE ( 'NONE', *, *, #218, .T. ) ;
#144 = DIRECTION ( 'NONE',  ( 0.0000000000000000000, 1.000000000000000000, 0.0000000000000000000 ) ) ;
#145 = DIRECTION ( 'NONE',  ( -0.0000000000000000000, -0.0000000000000000000, -1.000000000000000000 ) ) ;
#146 = CARTESIAN_POINT ( 'NONE',  ( 0.0000000000000000000, 0.0000000000000000000, 0.0000000000000000000 ) ) ;
#147 = LINE ( 'NONE', #217, #254 ) ;
#148 = APPROVAL_STATUS ( 'not_yet_approved' ) ;
#149 = FACE_OUTER_BOUND ( 'NONE', #111, .T. ) ;
#150 = APPROVAL_ROLE ( '' ) ;
#151 = CARTESIAN_POINT ( 'NONE',  ( 100.0000000000000000, 0.0000000000000000000, 10.00000000000000000 ) ) ;
#152 = APPROVAL_ROLE ( '' ) ;
#153 = APPLICATION_CONTEXT ( 'configuration controlled 3d designs of mechanical parts and assemblies' ) ;
#154 = FACE_BOUND ( 'NONE', #229, .T. ) ;
#155 = APPROVAL_ROLE ( '' ) ;
#156 = VERTEX_POINT ( 'NONE', #220 ) ;
#157 = CIRCLE ( 'NONE', #34, 5.099999999999996980 ) ;
#158 = ORIENTED_EDGE ( 'NONE', *, *, #9, .F. ) ;
#159 = APPROVAL ( #148, 'UNSPECIFIED' ) ;
#160 = LINE ( 'NONE', #215, #78 ) ;
#161 = EDGE_CURVE ( 'NONE', #208, #53, #219, .T. ) ;
#162 = DIRECTION ( 'NONE',  ( -1.000000000000000000, 0.0000000000000000000, 0.0000000000000000000 ) ) ;
#163 = DIRECTION ( 'NONE',  ( -0.0000000000000000000, -0.0000000000000000000, -1.000000000000000000 ) ) ;
#164 = DIRECTION ( 'NONE',  ( 0.0000000000000000000, 1.000000000000000000, 0.0000000000000000000 ) ) ;
#165 = VECTOR ( 'NONE', #72, 1000.000000000000000 ) ;
#166 = DIRECTION ( 'NONE',  ( 0.0000000000000000000, 0.0000000000000000000, -1.000000000000000000 ) ) ;
#167 = LOCAL_TIME ( 14, 48, 46.00000000000000000, #243 ) ;
#168 = CARTESIAN_POINT ( 'NONE',  ( 12.00000000000000000, 15.00000000000000000, 9.999999999999998224 ) ) ;
#169 = EDGE_CURVE ( 'NONE', #86, #208, #147, .T. ) ;
#170 = DIRECTION ( 'NONE',  ( 1.000000000000000000, 0.0000000000000000000, 0.0000000000000000000 ) ) ;
#171 = DIRECTION ( 'NONE',  ( -0.0000000000000000000, -1.000000000000000000, -0.0000000000000000000 ) ) ;
#172 = PRODUCT_DEFINITION_FORMATION_WITH_SPECIFIED_SOURCE ( 'ANY', '', #51, .NOT_KNOWN. ) ;
#173 = PERSON_AND_ORGANIZATION_ROLE ( 'classification_officer' ) ;
#174 = DESIGN_CONTEXT ( 'detailed design', #153, 'design' ) ;
#175 = DATE_AND_TIME ( #88, #167 ) ;
#176 = ADVANCED_FACE ( 'NONE', ( #182 ), #121, .F. ) ;
#177 = DATE_AND_TIME ( #102, #25 ) ;
#178 = CARTESIAN_POINT ( 'NONE',  ( 0.0000000000000000000, 30.00000000000000000, 10.00000000000000000 ) ) ;
#179 = DATE_TIME_ROLE ( 'creation_date' ) ;
#180 = VECTOR ( 'NONE', #279, 1000.000000000000000 ) ;
#181 = ADVANCED_FACE ( 'NONE', ( #154, #109 ), #116, .T. ) ;
#182 = FACE_OUTER_BOUND ( 'NONE', #56, .T. ) ;
#183 = EDGE_LOOP ( 'NONE', ( #70, #47, #6, #113 ) ) ;
#184 = DATE_AND_TIME ( #214, #107 ) ;
#185 = CC_DESIGN_PERSON_AND_ORGANIZATION_ASSIGNMENT ( #136, #276, ( #172 ) ) ;
#186 = CIRCLE ( 'NONE', #106, 5.099999999999986322 ) ;
#187 = EDGE_LOOP ( 'NONE', ( #300, #311, #133, #302 ) ) ;
#188 = CARTESIAN_POINT ( 'NONE',  ( 0.0000000000000000000, 0.0000000000000000000, 10.00000000000000000 ) ) ;
#189 = DIRECTION ( 'NONE',  ( -0.0000000000000000000, -0.0000000000000000000, -1.000000000000000000 ) ) ;
#190 = CARTESIAN_POINT ( 'NONE',  ( 0.0000000000000000000, 0.0000000000000000000, 10.00000000000000000 ) ) ;
#191 = DIRECTION ( 'NONE',  ( -1.000000000000000000, -0.0000000000000000000, -0.0000000000000000000 ) ) ;
#192 = PLANE ( 'NONE',  #83 ) ;
#193 = DIRECTION ( 'NONE',  ( -0.0000000000000000000, -0.0000000000000000000, -1.000000000000000000 ) ) ;
#194 = ORIENTED_EDGE ( 'NONE', *, *, #287, .F. ) ;
#195 = CARTESIAN_POINT ( 'NONE',  ( 0.0000000000000000000, 30.00000000000000000, 10.00000000000000000 ) ) ;
#196 = LINE ( 'NONE', #151, #60 ) ;
#197 = DIRECTION ( 'NONE',  ( -0.0000000000000000000, -0.0000000000000000000, -1.000000000000000000 ) ) ;
#198 = DIRECTION ( 'NONE',  ( -0.0000000000000000000, -1.000000000000000000, -0.0000000000000000000 ) ) ;
#199 = VECTOR ( 'NONE', #144, 1000.000000000000000 ) ;
#200 = VERTEX_POINT ( 'NONE', #17 ) ;
#201 = COORDINATED_UNIVERSAL_TIME_OFFSET ( 2, 0, .AHEAD. ) ;
#202 = VECTOR ( 'NONE', #117, 1000.000000000000000 ) ;
#203 = ORIENTED_EDGE ( 'NONE', *, *, #23, .T. ) ;
#204 = CC_DESIGN_PERSON_AND_ORGANIZATION_ASSIGNMENT ( #55, #173, ( #282 ) ) ;
#205 = ORIENTED_EDGE ( 'NONE', *, *, #242, .T. ) ;
#206 = LOCAL_TIME ( 14, 48, 46.00000000000000000, #235 ) ;
#207 =( GEOMETRIC_REPRESENTATION_CONTEXT ( 3 ) GLOBAL_UNCERTAINTY_ASSIGNED_CONTEXT ( ( #52 ) ) GLOBAL_UNIT_ASSIGNED_CONTEXT ( ( #74, #297, #228 ) ) REPRESENTATION_CONTEXT ( 'NONE', 'WORKASPACE' ) );
#208 = VERTEX_POINT ( 'NONE', #146 ) ;
#209 = EDGE_LOOP ( 'NONE', ( #36, #3, #247, #49 ) ) ;
#210 = PRODUCT_DEFINITION_SHAPE ( 'NONE', 'NONE',  #132 ) ;
#211 = APPROVAL ( #127, 'UNSPECIFIED' ) ;
#212 = DIRECTION ( 'NONE',  ( -0.0000000000000000000, -0.0000000000000000000, -1.000000000000000000 ) ) ;
#213 = APPROVAL_PERSON_ORGANIZATION ( #120, #304, #150 ) ;
#214 = CALENDAR_DATE ( 2019, 29, 5 ) ;
#215 = CARTESIAN_POINT ( 'NONE',  ( 0.0000000000000000000, 30.00000000000000000, 0.0000000000000000000 ) ) ;
#216 = DIRECTION ( 'NONE',  ( -0.0000000000000000000, -0.0000000000000000000, -1.000000000000000000 ) ) ;
#217 = CARTESIAN_POINT ( 'NONE',  ( 0.0000000000000000000, 0.0000000000000000000, 10.00000000000000000 ) ) ;
#218 = EDGE_CURVE ( 'NONE', #156, #200, #160, .T. ) ;
#219 = LINE ( 'NONE', #263, #104 ) ;
#220 = CARTESIAN_POINT ( 'NONE',  ( 100.0000000000000000, 30.00000000000000000, 0.0000000000000000000 ) ) ;
#221 = APPLICATION_PROTOCOL_DEFINITION ( 'international standard', 'config_control_design', 1994, #75 ) ;
#222 = PRODUCT_RELATED_PRODUCT_CATEGORY ( 'detail', '', ( #51 ) ) ;
#223 = ADVANCED_FACE ( 'NONE', ( #29, #299 ), #90, .F. ) ;
#224 = CARTESIAN_POINT ( 'NONE',  ( 100.0000000000000000, 30.00000000000000000, 10.00000000000000000 ) ) ;
#225 = DIRECTION ( 'NONE',  ( 0.0000000000000000000, 0.0000000000000000000, -1.000000000000000000 ) ) ;
#226 = CC_DESIGN_APPROVAL ( #159, ( #282 ) ) ;
#227 = ORIENTED_EDGE ( 'NONE', *, *, #9, .T. ) ;
#228 =( NAMED_UNIT ( * ) SI_UNIT ( $, .STERADIAN. ) SOLID_ANGLE_UNIT ( ) );
#229 = EDGE_LOOP ( 'NONE', ( #8, #268 ) ) ;
#230 = VERTEX_POINT ( 'NONE', #115 ) ;
#231 = AXIS2_PLACEMENT_3D ( 'NONE', #251, #272, #1 ) ;
#232 = DATE_AND_TIME ( #245, #16 ) ;
#233 = DATE_AND_TIME ( #73, #206 ) ;
#234 = ORIENTED_EDGE ( 'NONE', *, *, #81, .T. ) ;
#235 = COORDINATED_UNIVERSAL_TIME_OFFSET ( 2, 0, .AHEAD. ) ;
#236 = FACE_OUTER_BOUND ( 'NONE', #79, .T. ) ;
#237 = EDGE_CURVE ( 'NONE', #281, #86, #63, .T. ) ;
#238 = LINE ( 'NONE', #31, #180 ) ;
#239 = AXIS2_PLACEMENT_3D ( 'NONE', #306, #166, #290 ) ;
#240 = LINE ( 'NONE', #248, #271 ) ;
#241 = CARTESIAN_POINT ( 'NONE',  ( 6.900000000000003020, 15.00000000000000000, 9.999999999999998224 ) ) ;
#242 = EDGE_CURVE ( 'NONE', #200, #208, #240, .T. ) ;
#243 = COORDINATED_UNIVERSAL_TIME_OFFSET ( 2, 0, .AHEAD. ) ;
#244 = PERSON_AND_ORGANIZATION_ROLE ( 'design_owner' ) ;
#245 = CALENDAR_DATE ( 2019, 29, 5 ) ;
#246 = DIRECTION ( 'NONE',  ( 0.0000000000000000000, -1.000000000000000000, 0.0000000000000000000 ) ) ;
#247 = ORIENTED_EDGE ( 'NONE', *, *, #26, .T. ) ;
#248 = CARTESIAN_POINT ( 'NONE',  ( 0.0000000000000000000, 0.0000000000000000000, 0.0000000000000000000 ) ) ;
#249 = EDGE_CURVE ( 'NONE', #58, #156, #139, .T. ) ;
#250 = VECTOR ( 'NONE', #197, 1000.000000000000000 ) ;
#251 = CARTESIAN_POINT ( 'NONE',  ( 0.0000000000000000000, 0.0000000000000000000, 0.0000000000000000000 ) ) ;
#252 = PERSON_AND_ORGANIZATION_ROLE ( 'creator' ) ;
#253 = ORIENTED_EDGE ( 'NONE', *, *, #287, .T. ) ;
#254 = VECTOR ( 'NONE', #286, 1000.000000000000000 ) ;
#255 = FACE_OUTER_BOUND ( 'NONE', #187, .T. ) ;
#256 = ORIENTED_EDGE ( 'NONE', *, *, #169, .T. ) ;
#257 = CC_DESIGN_DATE_AND_TIME_ASSIGNMENT ( #175, #20, ( #282 ) ) ;
#258 = EDGE_CURVE ( 'NONE', #86, #230, #57, .T. ) ;
#259 = ORIENTED_EDGE ( 'NONE', *, *, #296, .F. ) ;
#260 = ORIENTED_EDGE ( 'NONE', *, *, #43, .T. ) ;
#261 = AXIS2_PLACEMENT_3D ( 'NONE', #310, #87, #266 ) ;
#262 = ORIENTED_EDGE ( 'NONE', *, *, #161, .T. ) ;
#263 = CARTESIAN_POINT ( 'NONE',  ( 0.0000000000000000000, 0.0000000000000000000, 0.0000000000000000000 ) ) ;
#264 = CARTESIAN_POINT ( 'NONE',  ( 12.00000000000000000, 15.00000000000000000, -9.307315673519861793E-16 ) ) ;
#265 = DIRECTION ( 'NONE',  ( -1.000000000000000000, 0.0000000000000000000, 0.0000000000000000000 ) ) ;
#266 = DIRECTION ( 'NONE',  ( -1.000000000000000000, 0.0000000000000000000, 0.0000000000000000000 ) ) ;
#267 = CARTESIAN_POINT ( 'NONE',  ( 6.900000000000013678, 15.00000000000000000, -9.307315673519861793E-16 ) ) ;
#268 = ORIENTED_EDGE ( 'NONE', *, *, #81, .F. ) ;
#269 = AXIS2_PLACEMENT_3D ( 'NONE', #270, #225, #99 ) ;
#270 = CARTESIAN_POINT ( 'NONE',  ( 0.0000000000000000000, 0.0000000000000000000, 10.00000000000000000 ) ) ;
#271 = VECTOR ( 'NONE', #171, 1000.000000000000000 ) ;
#272 = DIRECTION ( 'NONE',  ( 0.0000000000000000000, 0.0000000000000000000, 1.000000000000000000 ) ) ;
#273 = PERSON_AND_ORGANIZATION ( #95, #112 ) ;
#274 = APPLICATION_PROTOCOL_DEFINITION ( 'international standard', 'config_control_design', 1994, #153 ) ;
#275 = CLOSED_SHELL ( 'NONE', ( #77, #176, #308, #18, #294, #223, #181, #7 ) ) ;
#276 = PERSON_AND_ORGANIZATION_ROLE ( 'design_supplier' ) ;
#277 = FACE_OUTER_BOUND ( 'NONE', #12, .T. ) ;
#278 = ORIENTED_EDGE ( 'NONE', *, *, #307, .F. ) ;
#279 = DIRECTION ( 'NONE',  ( -0.0000000000000000000, -0.0000000000000000000, -1.000000000000000000 ) ) ;
#280 = VECTOR ( 'NONE', #164, 1000.000000000000000 ) ;
#281 = VERTEX_POINT ( 'NONE', #195 ) ;
#282 = SECURITY_CLASSIFICATION ( '', '', #291 ) ;
#283 = CC_DESIGN_SECURITY_CLASSIFICATION ( #282, ( #172 ) ) ;
#284 = CIRCLE ( 'NONE', #46, 5.099999999999986322 ) ;
#285 = ORIENTED_EDGE ( 'NONE', *, *, #258, .F. ) ;
#286 = DIRECTION ( 'NONE',  ( -0.0000000000000000000, -0.0000000000000000000, -1.000000000000000000 ) ) ;
#287 = EDGE_CURVE ( 'NONE', #230, #53, #196, .T. ) ;
#288 = CARTESIAN_POINT ( 'NONE',  ( 12.00000000000000000, 15.00000000000000000, -9.307315673519861793E-16 ) ) ;
#289 = APPROVAL_DATE_TIME ( #232, #159 ) ;
#290 = DIRECTION ( 'NONE',  ( -1.000000000000000000, 0.0000000000000000000, -0.0000000000000000000 ) ) ;
#291 = SECURITY_CLASSIFICATION_LEVEL ( 'unclassified' ) ;
#292 = CARTESIAN_POINT ( 'NONE',  ( 0.0000000000000000000, 0.0000000000000000000, 10.00000000000000000 ) ) ;
#293 = CC_DESIGN_PERSON_AND_ORGANIZATION_ASSIGNMENT ( #76, #5, ( #132 ) ) ;
#294 = ADVANCED_FACE ( 'NONE', ( #277 ), #192, .F. ) ;
#295 = PERSON_AND_ORGANIZATION ( #95, #112 ) ;
#296 = EDGE_CURVE ( 'NONE', #59, #110, #33, .T. ) ;
#297 =( NAMED_UNIT ( * ) PLANE_ANGLE_UNIT ( ) SI_UNIT ( $, .RADIAN. ) );
#298 = APPROVAL_DATE_TIME ( #184, #304 ) ;
#299 = FACE_OUTER_BOUND ( 'NONE', #209, .T. ) ;
#300 = ORIENTED_EDGE ( 'NONE', *, *, #134, .F. ) ;
#301 = CC_DESIGN_PERSON_AND_ORGANIZATION_ASSIGNMENT ( #35, #252, ( #172 ) ) ;
#302 = ORIENTED_EDGE ( 'NONE', *, *, #128, .T. ) ;
#303 = CARTESIAN_POINT ( 'NONE',  ( 100.0000000000000000, 0.0000000000000000000, 10.00000000000000000 ) ) ;
#304 = APPROVAL ( #92, 'UNSPECIFIED' ) ;
#305 = CARTESIAN_POINT ( 'NONE',  ( 12.00000000000000000, 15.00000000000000000, 0.0000000000000000000 ) ) ;
#306 = CARTESIAN_POINT ( 'NONE',  ( 0.0000000000000000000, 0.0000000000000000000, 0.0000000000000000000 ) ) ;
#307 = EDGE_CURVE ( 'NONE', #58, #281, #2, .T. ) ;
#308 = ADVANCED_FACE ( 'NONE', ( #125 ), #101, .F. ) ;
#309 = CARTESIAN_POINT ( 'NONE',  ( 100.0000000000000000, 0.0000000000000000000, 10.00000000000000000 ) ) ;
#310 = CARTESIAN_POINT ( 'NONE',  ( 12.00000000000000000, 15.00000000000000000, 0.0000000000000000000 ) ) ;
#311 = ORIENTED_EDGE ( 'NONE', *, *, #119, .F. ) ;
ENDSEC;
END-ISO-10303-21;
