ISO-10303-21;
HEADER;
FILE_DESCRIPTION (( 'STEP AP203' ),
    '1' );
FILE_NAME ('1.24.F06.STEP',
    '2019-05-29T11:53:55',
    ( '' ),
    ( '' ),
    'SwSTEP 2.0',
    'SolidWorks 2018',
    '' );
FILE_SCHEMA (( 'CONFIG_CONTROL_DESIGN' ));
ENDSEC;

DATA;
#1 = AXIS2_PLACEMENT_3D ( 'NONE', #236, #69, #135 ) ;
#2 = UNCERTAINTY_MEASURE_WITH_UNIT (LENGTH_MEASURE( 1.000000000000000082E-05 ), #64, 'distance_accuracy_value', 'NONE');
#3 = CC_DESIGN_PERSON_AND_ORGANIZATION_ASSIGNMENT ( #55, #111, ( #161 ) ) ;
#4 = DIRECTION ( 'NONE',  ( -1.000000000000000000, -0.0000000000000000000, -0.0000000000000000000 ) ) ;
#5 = VECTOR ( 'NONE', #290, 1000.000000000000000 ) ;
#6 = ORIENTED_EDGE ( 'NONE', *, *, #156, .F. ) ;
#7 = ADVANCED_FACE ( 'NONE', ( #11 ), #142, .F. ) ;
#8 = DATE_TIME_ROLE ( 'creation_date' ) ;
#9 = APPLICATION_CONTEXT ( 'configuration controlled 3d designs of mechanical parts and assemblies' ) ;
#10 = VECTOR ( 'NONE', #214, 1000.000000000000000 ) ;
#11 = FACE_OUTER_BOUND ( 'NONE', #302, .T. ) ;
#12 = APPROVAL_STATUS ( 'not_yet_approved' ) ;
#13 = MECHANICAL_CONTEXT ( 'NONE', #9, 'mechanical' ) ;
#14 = CARTESIAN_POINT ( 'NONE',  ( -15.00000000000000178, 7.499999999999999112, 120.0000000000000000 ) ) ;
#15 = SECURITY_CLASSIFICATION_LEVEL ( 'unclassified' ) ;
#16 = DATE_AND_TIME ( #82, #249 ) ;
#17 = VECTOR ( 'NONE', #248, 1000.000000000000000 ) ;
#18 = DIRECTION ( 'NONE',  ( -0.0000000000000000000, -1.000000000000000000, -0.0000000000000000000 ) ) ;
#19 = AXIS2_PLACEMENT_3D ( 'NONE', #221, #147, #54 ) ;
#20 = ORIENTED_EDGE ( 'NONE', *, *, #240, .F. ) ;
#21 = CC_DESIGN_PERSON_AND_ORGANIZATION_ASSIGNMENT ( #264, #181, ( #239 ) ) ;
#22 = DIRECTION ( 'NONE',  ( 0.0000000000000000000, 0.0000000000000000000, -1.000000000000000000 ) ) ;
#23 = CARTESIAN_POINT ( 'NONE',  ( 0.0000000000000000000, 7.499999999999999112, 15.00000000000000000 ) ) ;
#24 = LOCAL_TIME ( 14, 53, 55.00000000000000000, #235 ) ;
#25 = CIRCLE ( 'NONE', #26, 6.999999999999999112 ) ;
#26 = AXIS2_PLACEMENT_3D ( 'NONE', #129, #256, #209 ) ;
#27 = ORIENTED_EDGE ( 'NONE', *, *, #274, .F. ) ;
#28 = ORIENTED_EDGE ( 'NONE', *, *, #156, .T. ) ;
#29 = CARTESIAN_POINT ( 'NONE',  ( -15.00000000000000178, -7.500000000000000888, 120.0000000000000000 ) ) ;
#30 = AXIS2_PLACEMENT_3D ( 'NONE', #85, #81, #276 ) ;
#31 = VECTOR ( 'NONE', #4, 1000.000000000000000 ) ;
#32 = APPROVAL_ROLE ( '' ) ;
#33 = VECTOR ( 'NONE', #200, 1000.000000000000000 ) ;
#34 = APPROVAL_STATUS ( 'not_yet_approved' ) ;
#35 = PERSON_AND_ORGANIZATION_ROLE ( 'creator' ) ;
#36 = EDGE_CURVE ( 'NONE', #38, #50, #195, .T. ) ;
#37 = CALENDAR_DATE ( 2019, 29, 5 ) ;
#38 = VERTEX_POINT ( 'NONE', #286 ) ;
#39 = AXIS2_PLACEMENT_3D ( 'NONE', #261, #231, #90 ) ;
#40 = CALENDAR_DATE ( 2019, 29, 5 ) ;
#41 = LINE ( 'NONE', #262, #75 ) ;
#42 = ORIENTED_EDGE ( 'NONE', *, *, #253, .F. ) ;
#43 = CARTESIAN_POINT ( 'NONE',  ( 14.99999999999999822, 7.499999999999999112, 120.0000000000000000 ) ) ;
#44 = CARTESIAN_POINT ( 'NONE',  ( 0.0000000000000000000, 0.0000000000000000000, 120.0000000000000000 ) ) ;
#45 = ORIENTED_EDGE ( 'NONE', *, *, #258, .T. ) ;
#46 = CC_DESIGN_DATE_AND_TIME_ASSIGNMENT ( #16, #8, ( #161 ) ) ;
#47 = CARTESIAN_POINT ( 'NONE',  ( -15.00000000000000178, 7.499999999999999112, 0.0000000000000000000 ) ) ;
#48 = CALENDAR_DATE ( 2019, 29, 5 ) ;
#49 = VECTOR ( 'NONE', #193, 1000.000000000000000 ) ;
#50 = VERTEX_POINT ( 'NONE', #66 ) ;
#51 = CARTESIAN_POINT ( 'NONE',  ( 8.572527594031469245E-16, -7.500000000000000888, 8.000000000000001776 ) ) ;
#52 = ADVANCED_FACE ( 'NONE', ( #87, #206 ), #72, .F. ) ;
#53 = CARTESIAN_POINT ( 'NONE',  ( 14.99999999999999822, -7.500000000000000888, 120.0000000000000000 ) ) ;
#54 = DIRECTION ( 'NONE',  ( 0.0000000000000000000, 0.0000000000000000000, 1.000000000000000000 ) ) ;
#55 = PERSON_AND_ORGANIZATION ( #259, #243 ) ;
#56 = EDGE_LOOP ( 'NONE', ( #273, #171, #201, #102 ) ) ;
#57 = EDGE_CURVE ( 'NONE', #99, #113, #190, .T. ) ;
#58 = DIRECTION ( 'NONE',  ( -0.0000000000000000000, 1.000000000000000000, -0.0000000000000000000 ) ) ;
#59 =( GEOMETRIC_REPRESENTATION_CONTEXT ( 3 ) GLOBAL_UNCERTAINTY_ASSIGNED_CONTEXT ( ( #2 ) ) GLOBAL_UNIT_ASSIGNED_CONTEXT ( ( #64, #303, #157 ) ) REPRESENTATION_CONTEXT ( 'NONE', 'WORKASPACE' ) );
#60 = COORDINATED_UNIVERSAL_TIME_OFFSET ( 2, 0, .AHEAD. ) ;
#61 = LINE ( 'NONE', #53, #33 ) ;
#62 = ORIENTED_EDGE ( 'NONE', *, *, #114, .T. ) ;
#63 = EDGE_CURVE ( 'NONE', #70, #211, #307, .T. ) ;
#64 =( LENGTH_UNIT ( ) NAMED_UNIT ( * ) SI_UNIT ( .MILLI., .METRE. ) );
#65 = DATE_TIME_ROLE ( 'classification_date' ) ;
#66 = CARTESIAN_POINT ( 'NONE',  ( 14.99999999999999822, 7.499999999999999112, 0.0000000000000000000 ) ) ;
#67 = APPROVAL ( #12, 'UNSPECIFIED' ) ;
#68 = APPROVAL_DATE_TIME ( #194, #245 ) ;
#69 = DIRECTION ( 'NONE',  ( 0.0000000000000000000, -1.000000000000000000, 0.0000000000000000000 ) ) ;
#70 = VERTEX_POINT ( 'NONE', #160 ) ;
#71 = EDGE_LOOP ( 'NONE', ( #223, #27, #42, #45 ) ) ;
#72 = PLANE ( 'NONE',  #1 ) ;
#73 = AXIS2_PLACEMENT_3D ( 'NONE', #183, #230, #89 ) ;
#74 = DIRECTION ( 'NONE',  ( 0.0000000000000000000, 0.0000000000000000000, -1.000000000000000000 ) ) ;
#75 = VECTOR ( 'NONE', #255, 1000.000000000000000 ) ;
#76 = APPROVAL_PERSON_ORGANIZATION ( #217, #245, #208 ) ;
#77 = ORIENTED_EDGE ( 'NONE', *, *, #119, .T. ) ;
#78 = CARTESIAN_POINT ( 'NONE',  ( -15.00000000000000178, -7.500000000000000888, 0.0000000000000000000 ) ) ;
#79 = EDGE_LOOP ( 'NONE', ( #28, #310, #121, #106 ) ) ;
#80 = ADVANCED_FACE ( 'NONE', ( #83 ), #233, .T. ) ;
#81 = DIRECTION ( 'NONE',  ( 0.0000000000000000000, 1.000000000000000000, 0.0000000000000000000 ) ) ;
#82 = CALENDAR_DATE ( 2019, 29, 5 ) ;
#83 = FACE_OUTER_BOUND ( 'NONE', #98, .T. ) ;
#84 = PRODUCT_RELATED_PRODUCT_CATEGORY ( 'detail', '', ( #88 ) ) ;
#85 = CARTESIAN_POINT ( 'NONE',  ( -15.00000000000000178, -7.500000000000000888, 120.0000000000000000 ) ) ;
#86 = DIRECTION ( 'NONE',  ( 1.000000000000000000, 0.0000000000000000000, 0.0000000000000000000 ) ) ;
#87 = FACE_BOUND ( 'NONE', #180, .T. ) ;
#88 = PRODUCT ( '1.24.F06', '1.24.F06', '', ( #13 ) ) ;
#89 = DIRECTION ( 'NONE',  ( 1.000000000000000000, 0.0000000000000000000, 0.0000000000000000000 ) ) ;
#90 = DIRECTION ( 'NONE',  ( 0.0000000000000000000, 0.0000000000000000000, 1.000000000000000000 ) ) ;
#91 = AXIS2_PLACEMENT_3D ( 'NONE', #213, #109, #133 ) ;
#92 = PERSON_AND_ORGANIZATION ( #259, #243 ) ;
#93 = VECTOR ( 'NONE', #143, 1000.000000000000000 ) ;
#94 = VERTEX_POINT ( 'NONE', #267 ) ;
#95 = EDGE_LOOP ( 'NONE', ( #146, #116 ) ) ;
#96 = CIRCLE ( 'NONE', #192, 6.999999999999999112 ) ;
#97 = CARTESIAN_POINT ( 'NONE',  ( 14.99999999999999822, -7.500000000000000888, 120.0000000000000000 ) ) ;
#98 = EDGE_LOOP ( 'NONE', ( #207, #292, #120, #247 ) ) ;
#99 = VERTEX_POINT ( 'NONE', #260 ) ;
#100 = CC_DESIGN_PERSON_AND_ORGANIZATION_ASSIGNMENT ( #224, #35, ( #177 ) ) ;
#101 = CARTESIAN_POINT ( 'NONE',  ( -15.00000000000000178, 7.499999999999999112, 120.0000000000000000 ) ) ;
#102 = ORIENTED_EDGE ( 'NONE', *, *, #108, .F. ) ;
#103 = COORDINATED_UNIVERSAL_TIME_OFFSET ( 2, 0, .AHEAD. ) ;
#104 = CARTESIAN_POINT ( 'NONE',  ( 8.572527594031471218E-16, 7.499999999999999112, 8.000000000000000000 ) ) ;
#105 = LINE ( 'NONE', #78, #112 ) ;
#106 = ORIENTED_EDGE ( 'NONE', *, *, #297, .T. ) ;
#107 = APPROVAL_STATUS ( 'not_yet_approved' ) ;
#108 = EDGE_CURVE ( 'NONE', #70, #127, #237, .T. ) ;
#109 = DIRECTION ( 'NONE',  ( -0.0000000000000000000, 1.000000000000000000, -0.0000000000000000000 ) ) ;
#110 = VERTEX_POINT ( 'NONE', #14 ) ;
#111 = PERSON_AND_ORGANIZATION_ROLE ( 'creator' ) ;
#112 = VECTOR ( 'NONE', #198, 1000.000000000000000 ) ;
#113 = VERTEX_POINT ( 'NONE', #137 ) ;
#114 = EDGE_CURVE ( 'NONE', #113, #232, #105, .T. ) ;
#115 = PERSON_AND_ORGANIZATION ( #259, #243 ) ;
#116 = ORIENTED_EDGE ( 'NONE', *, *, #300, .T. ) ;
#117 = DIRECTION ( 'NONE',  ( 0.0000000000000000000, 0.0000000000000000000, 1.000000000000000000 ) ) ;
#118 = PLANE ( 'NONE',  #254 ) ;
#119 = EDGE_CURVE ( 'NONE', #232, #50, #159, .T. ) ;
#120 = ORIENTED_EDGE ( 'NONE', *, *, #57, .F. ) ;
#121 = ORIENTED_EDGE ( 'NONE', *, *, #253, .T. ) ;
#122 = DIRECTION ( 'NONE',  ( 0.0000000000000000000, 0.0000000000000000000, -1.000000000000000000 ) ) ;
#123 = AXIS2_PLACEMENT_3D ( 'NONE', #29, #197, #22 ) ;
#124 = APPROVAL_PERSON_ORGANIZATION ( #92, #182, #257 ) ;
#125 = DIRECTION ( 'NONE',  ( 0.0000000000000000000, 0.0000000000000000000, 1.000000000000000000 ) ) ;
#126 = COORDINATED_UNIVERSAL_TIME_OFFSET ( 2, 0, .AHEAD. ) ;
#127 = VERTEX_POINT ( 'NONE', #170 ) ;
#128 = APPLICATION_PROTOCOL_DEFINITION ( 'international standard', 'config_control_design', 1994, #9 ) ;
#129 = CARTESIAN_POINT ( 'NONE',  ( 0.0000000000000000000, 7.499999999999999112, 15.00000000000000000 ) ) ;
#130 = CARTESIAN_POINT ( 'NONE',  ( 0.0000000000000000000, -7.500000000000000888, 15.00000000000000000 ) ) ;
#131 = CYLINDRICAL_SURFACE ( 'NONE', #140, 6.999999999999999112 ) ;
#132 = ORIENTED_EDGE ( 'NONE', *, *, #144, .T. ) ;
#133 = DIRECTION ( 'NONE',  ( 0.0000000000000000000, 0.0000000000000000000, 1.000000000000000000 ) ) ;
#134 = DIRECTION ( 'NONE',  ( 0.0000000000000000000, 0.0000000000000000000, 1.000000000000000000 ) ) ;
#135 = DIRECTION ( 'NONE',  ( 0.0000000000000000000, -0.0000000000000000000, -1.000000000000000000 ) ) ;
#136 = ORIENTED_EDGE ( 'NONE', *, *, #36, .T. ) ;
#137 = CARTESIAN_POINT ( 'NONE',  ( -15.00000000000000178, -7.500000000000000888, 0.0000000000000000000 ) ) ;
#138 = VECTOR ( 'NONE', #18, 1000.000000000000000 ) ;
#139 = ORIENTED_EDGE ( 'NONE', *, *, #285, .F. ) ;
#140 = AXIS2_PLACEMENT_3D ( 'NONE', #246, #242, #117 ) ;
#141 = CARTESIAN_POINT ( 'NONE',  ( 8.572527594031471218E-16, 7.499999999999999112, 8.000000000000000000 ) ) ;
#142 = CYLINDRICAL_SURFACE ( 'NONE', #19, 6.999999999999999112 ) ;
#143 = DIRECTION ( 'NONE',  ( 0.0000000000000000000, 1.000000000000000000, 0.0000000000000000000 ) ) ;
#144 = EDGE_CURVE ( 'NONE', #50, #99, #269, .T. ) ;
#145 = LINE ( 'NONE', #151, #152 ) ;
#146 = ORIENTED_EDGE ( 'NONE', *, *, #63, .T. ) ;
#147 = DIRECTION ( 'NONE',  ( -0.0000000000000000000, 1.000000000000000000, -0.0000000000000000000 ) ) ;
#148 = CC_DESIGN_DATE_AND_TIME_ASSIGNMENT ( #185, #65, ( #239 ) ) ;
#149 = CC_DESIGN_APPROVAL ( #182, ( #161 ) ) ;
#150 = DESIGN_CONTEXT ( 'detailed design', #154, 'design' ) ;
#151 = CARTESIAN_POINT ( 'NONE',  ( -15.00000000000000178, -7.500000000000000888, 120.0000000000000000 ) ) ;
#152 = VECTOR ( 'NONE', #167, 1000.000000000000000 ) ;
#153 = PLANE ( 'NONE',  #39 ) ;
#154 = APPLICATION_CONTEXT ( 'configuration controlled 3d designs of mechanical parts and assemblies' ) ;
#155 = PLANE ( 'NONE',  #30 ) ;
#156 = EDGE_CURVE ( 'NONE', #94, #38, #61, .T. ) ;
#157 =( NAMED_UNIT ( * ) SI_UNIT ( $, .STERADIAN. ) SOLID_ANGLE_UNIT ( ) );
#158 = LOCAL_TIME ( 14, 53, 55.00000000000000000, #271 ) ;
#159 = LINE ( 'NONE', #216, #93 ) ;
#160 = CARTESIAN_POINT ( 'NONE',  ( 0.0000000000000000000, -7.500000000000000888, 22.00000000000000000 ) ) ;
#161 = PRODUCT_DEFINITION ( 'UNKNOWN', '', #177, #150 ) ;
#162 = EDGE_LOOP ( 'NONE', ( #62, #20, #270, #281 ) ) ;
#163 = EDGE_LOOP ( 'NONE', ( #77, #288, #6, #311 ) ) ;
#164 = AXIS2_PLACEMENT_3D ( 'NONE', #309, #74, #210 ) ;
#165 = APPROVAL_PERSON_ORGANIZATION ( #115, #67, #32 ) ;
#166 = VERTEX_POINT ( 'NONE', #289 ) ;
#167 = DIRECTION ( 'NONE',  ( -0.0000000000000000000, -0.0000000000000000000, -1.000000000000000000 ) ) ;
#168 = APPROVAL_DATE_TIME ( #304, #67 ) ;
#169 = FACE_OUTER_BOUND ( 'NONE', #162, .T. ) ;
#170 = CARTESIAN_POINT ( 'NONE',  ( 0.0000000000000000000, 7.499999999999999112, 22.00000000000000000 ) ) ;
#171 = ORIENTED_EDGE ( 'NONE', *, *, #291, .T. ) ;
#172 = CC_DESIGN_APPROVAL ( #67, ( #177 ) ) ;
#173 = ADVANCED_FACE ( 'NONE', ( #199 ), #263, .F. ) ;
#174 = SHAPE_DEFINITION_REPRESENTATION ( #189, #268 ) ;
#175 = MANIFOLD_SOLID_BREP ( 'M16 Tapped Hole1', #186 ) ;
#176 = ORIENTED_EDGE ( 'NONE', *, *, #258, .F. ) ;
#177 = PRODUCT_DEFINITION_FORMATION_WITH_SPECIFIED_SOURCE ( 'ANY', '', #88, .NOT_KNOWN. ) ;
#178 = LOCAL_TIME ( 14, 53, 55.00000000000000000, #103 ) ;
#179 = FACE_OUTER_BOUND ( 'NONE', #56, .T. ) ;
#180 = EDGE_LOOP ( 'NONE', ( #139, #266 ) ) ;
#181 = PERSON_AND_ORGANIZATION_ROLE ( 'classification_officer' ) ;
#182 = APPROVAL ( #107, 'UNSPECIFIED' ) ;
#183 = CARTESIAN_POINT ( 'NONE',  ( 0.0000000000000000000, 0.0000000000000000000, 0.0000000000000000000 ) ) ;
#184 = PERSON_AND_ORGANIZATION_ROLE ( 'design_supplier' ) ;
#185 = DATE_AND_TIME ( #37, #178 ) ;
#186 = CLOSED_SHELL ( 'NONE', ( #188, #298, #52, #173, #250, #278, #80, #7 ) ) ;
#187 = PERSON_AND_ORGANIZATION_ROLE ( 'design_owner' ) ;
#188 = ADVANCED_FACE ( 'NONE', ( #179 ), #131, .F. ) ;
#189 = PRODUCT_DEFINITION_SHAPE ( 'NONE', 'NONE',  #161 ) ;
#190 = LINE ( 'NONE', #306, #138 ) ;
#191 = CC_DESIGN_APPROVAL ( #245, ( #239 ) ) ;
#192 = AXIS2_PLACEMENT_3D ( 'NONE', #130, #283, #134 ) ;
#193 = DIRECTION ( 'NONE',  ( -0.0000000000000000000, 1.000000000000000000, -0.0000000000000000000 ) ) ;
#194 = DATE_AND_TIME ( #40, #241 ) ;
#195 = LINE ( 'NONE', #43, #10 ) ;
#196 = ORIENTED_EDGE ( 'NONE', *, *, #285, .T. ) ;
#197 = DIRECTION ( 'NONE',  ( 1.000000000000000000, 0.0000000000000000000, 0.0000000000000000000 ) ) ;
#198 = DIRECTION ( 'NONE',  ( 1.000000000000000000, 0.0000000000000000000, 0.0000000000000000000 ) ) ;
#199 = FACE_OUTER_BOUND ( 'NONE', #71, .T. ) ;
#200 = DIRECTION ( 'NONE',  ( 0.0000000000000000000, 1.000000000000000000, 0.0000000000000000000 ) ) ;
#201 = ORIENTED_EDGE ( 'NONE', *, *, #234, .T. ) ;
#202 = DATE_AND_TIME ( #295, #158 ) ;
#203 = LINE ( 'NONE', #101, #5 ) ;
#204 = CC_DESIGN_PERSON_AND_ORGANIZATION_ASSIGNMENT ( #220, #187, ( #88 ) ) ;
#205 = CARTESIAN_POINT ( 'NONE',  ( -15.00000000000000178, -7.500000000000000888, 120.0000000000000000 ) ) ;
#206 = FACE_OUTER_BOUND ( 'NONE', #251, .T. ) ;
#207 = ORIENTED_EDGE ( 'NONE', *, *, #119, .F. ) ;
#208 = APPROVAL_ROLE ( '' ) ;
#209 = DIRECTION ( 'NONE',  ( 0.0000000000000000000, 0.0000000000000000000, 1.000000000000000000 ) ) ;
#210 = DIRECTION ( 'NONE',  ( -1.000000000000000000, 0.0000000000000000000, -0.0000000000000000000 ) ) ;
#211 = VERTEX_POINT ( 'NONE', #51 ) ;
#212 = CC_DESIGN_PERSON_AND_ORGANIZATION_ASSIGNMENT ( #275, #184, ( #177 ) ) ;
#213 = CARTESIAN_POINT ( 'NONE',  ( 0.0000000000000000000, -7.500000000000000888, 15.00000000000000000 ) ) ;
#214 = DIRECTION ( 'NONE',  ( -0.0000000000000000000, -0.0000000000000000000, -1.000000000000000000 ) ) ;
#215 = VECTOR ( 'NONE', #282, 1000.000000000000000 ) ;
#216 = CARTESIAN_POINT ( 'NONE',  ( 14.99999999999999822, -7.500000000000000888, 0.0000000000000000000 ) ) ;
#217 = PERSON_AND_ORGANIZATION ( #259, #243 ) ;
#218 = VECTOR ( 'NONE', #86, 1000.000000000000000 ) ;
#219 = CC_DESIGN_SECURITY_CLASSIFICATION ( #239, ( #177 ) ) ;
#220 = PERSON_AND_ORGANIZATION ( #259, #243 ) ;
#221 = CARTESIAN_POINT ( 'NONE',  ( 0.0000000000000000000, 7.499999999999999112, 15.00000000000000000 ) ) ;
#222 = CIRCLE ( 'NONE', #229, 6.999999999999999112 ) ;
#223 = ORIENTED_EDGE ( 'NONE', *, *, #57, .T. ) ;
#224 = PERSON_AND_ORGANIZATION ( #259, #243 ) ;
#225 = DIRECTION ( 'NONE',  ( -1.000000000000000000, 0.0000000000000000000, -0.0000000000000000000 ) ) ;
#226 = APPROVAL_DATE_TIME ( #202, #182 ) ;
#227 = LINE ( 'NONE', #205, #218 ) ;
#228 = ORIENTED_EDGE ( 'NONE', *, *, #108, .T. ) ;
#229 = AXIS2_PLACEMENT_3D ( 'NONE', #23, #58, #125 ) ;
#230 = DIRECTION ( 'NONE',  ( 0.0000000000000000000, 0.0000000000000000000, 1.000000000000000000 ) ) ;
#231 = DIRECTION ( 'NONE',  ( -1.000000000000000000, 0.0000000000000000000, 0.0000000000000000000 ) ) ;
#232 = VERTEX_POINT ( 'NONE', #293 ) ;
#233 = PLANE ( 'NONE',  #164 ) ;
#234 = EDGE_CURVE ( 'NONE', #238, #127, #222, .T. ) ;
#235 = COORDINATED_UNIVERSAL_TIME_OFFSET ( 2, 0, .AHEAD. ) ;
#236 = CARTESIAN_POINT ( 'NONE',  ( -15.00000000000000178, 7.499999999999999112, 120.0000000000000000 ) ) ;
#237 = LINE ( 'NONE', #305, #49 ) ;
#238 = VERTEX_POINT ( 'NONE', #141 ) ;
#239 = SECURITY_CLASSIFICATION ( '', '', #15 ) ;
#240 = EDGE_CURVE ( 'NONE', #94, #232, #244, .T. ) ;
#241 = LOCAL_TIME ( 14, 53, 55.00000000000000000, #60 ) ;
#242 = DIRECTION ( 'NONE',  ( -0.0000000000000000000, 1.000000000000000000, -0.0000000000000000000 ) ) ;
#243 = ORGANIZATION ( 'UNSPECIFIED', 'UNSPECIFIED', '' ) ;
#244 = LINE ( 'NONE', #97, #287 ) ;
#245 = APPROVAL ( #34, 'UNSPECIFIED' ) ;
#246 = CARTESIAN_POINT ( 'NONE',  ( 0.0000000000000000000, 7.499999999999999112, 15.00000000000000000 ) ) ;
#247 = ORIENTED_EDGE ( 'NONE', *, *, #144, .F. ) ;
#248 = DIRECTION ( 'NONE',  ( -0.0000000000000000000, -1.000000000000000000, -0.0000000000000000000 ) ) ;
#249 = LOCAL_TIME ( 14, 53, 55.00000000000000000, #126 ) ;
#250 = ADVANCED_FACE ( 'NONE', ( #301, #169 ), #155, .F. ) ;
#251 = EDGE_LOOP ( 'NONE', ( #132, #176, #308, #136 ) ) ;
#252 = ORIENTED_EDGE ( 'NONE', *, *, #291, .F. ) ;
#253 = EDGE_CURVE ( 'NONE', #110, #166, #265, .T. ) ;
#254 = AXIS2_PLACEMENT_3D ( 'NONE', #44, #122, #225 ) ;
#255 = DIRECTION ( 'NONE',  ( -0.0000000000000000000, -0.0000000000000000000, -1.000000000000000000 ) ) ;
#256 = DIRECTION ( 'NONE',  ( -0.0000000000000000000, 1.000000000000000000, -0.0000000000000000000 ) ) ;
#257 = APPROVAL_ROLE ( '' ) ;
#258 = EDGE_CURVE ( 'NONE', #110, #99, #41, .T. ) ;
#259 = PERSON ( 'UNSPECIFIED', 'UNSPECIFIED', 'UNSPECIFIED', ('UNSPECIFIED'), ('UNSPECIFIED'), ('UNSPECIFIED') ) ;
#260 = CARTESIAN_POINT ( 'NONE',  ( -15.00000000000000178, 7.499999999999999112, 0.0000000000000000000 ) ) ;
#261 = CARTESIAN_POINT ( 'NONE',  ( 14.99999999999999822, -7.500000000000000888, 120.0000000000000000 ) ) ;
#262 = CARTESIAN_POINT ( 'NONE',  ( -15.00000000000000178, 7.499999999999999112, 120.0000000000000000 ) ) ;
#263 = PLANE ( 'NONE',  #123 ) ;
#264 = PERSON_AND_ORGANIZATION ( #259, #243 ) ;
#265 = LINE ( 'NONE', #294, #17 ) ;
#266 = ORIENTED_EDGE ( 'NONE', *, *, #234, .F. ) ;
#267 = CARTESIAN_POINT ( 'NONE',  ( 14.99999999999999822, -7.500000000000000888, 120.0000000000000000 ) ) ;
#268 = ADVANCED_BREP_SHAPE_REPRESENTATION ( '1.24.F06', ( #175, #73 ), #59 ) ;
#269 = LINE ( 'NONE', #47, #31 ) ;
#270 = ORIENTED_EDGE ( 'NONE', *, *, #297, .F. ) ;
#271 = COORDINATED_UNIVERSAL_TIME_OFFSET ( 2, 0, .AHEAD. ) ;
#272 = EDGE_CURVE ( 'NONE', #38, #110, #203, .T. ) ;
#273 = ORIENTED_EDGE ( 'NONE', *, *, #300, .F. ) ;
#274 = EDGE_CURVE ( 'NONE', #166, #113, #145, .T. ) ;
#275 = PERSON_AND_ORGANIZATION ( #259, #243 ) ;
#276 = DIRECTION ( 'NONE',  ( 0.0000000000000000000, -0.0000000000000000000, 1.000000000000000000 ) ) ;
#277 = DIRECTION ( 'NONE',  ( -0.0000000000000000000, -0.0000000000000000000, -1.000000000000000000 ) ) ;
#278 = ADVANCED_FACE ( 'NONE', ( #284 ), #118, .F. ) ;
#279 = APPLICATION_PROTOCOL_DEFINITION ( 'international standard', 'config_control_design', 1994, #154 ) ;
#280 = FACE_OUTER_BOUND ( 'NONE', #163, .T. ) ;
#281 = ORIENTED_EDGE ( 'NONE', *, *, #274, .T. ) ;
#282 = DIRECTION ( 'NONE',  ( -0.0000000000000000000, 1.000000000000000000, -0.0000000000000000000 ) ) ;
#283 = DIRECTION ( 'NONE',  ( -0.0000000000000000000, 1.000000000000000000, -0.0000000000000000000 ) ) ;
#284 = FACE_OUTER_BOUND ( 'NONE', #79, .T. ) ;
#285 = EDGE_CURVE ( 'NONE', #127, #238, #25, .T. ) ;
#286 = CARTESIAN_POINT ( 'NONE',  ( 14.99999999999999822, 7.499999999999999112, 120.0000000000000000 ) ) ;
#287 = VECTOR ( 'NONE', #277, 1000.000000000000000 ) ;
#288 = ORIENTED_EDGE ( 'NONE', *, *, #36, .F. ) ;
#289 = CARTESIAN_POINT ( 'NONE',  ( -15.00000000000000178, -7.500000000000000888, 120.0000000000000000 ) ) ;
#290 = DIRECTION ( 'NONE',  ( -1.000000000000000000, -0.0000000000000000000, -0.0000000000000000000 ) ) ;
#291 = EDGE_CURVE ( 'NONE', #211, #238, #296, .T. ) ;
#292 = ORIENTED_EDGE ( 'NONE', *, *, #114, .F. ) ;
#293 = CARTESIAN_POINT ( 'NONE',  ( 14.99999999999999822, -7.500000000000000888, 0.0000000000000000000 ) ) ;
#294 = CARTESIAN_POINT ( 'NONE',  ( -15.00000000000000178, -7.500000000000000888, 120.0000000000000000 ) ) ;
#295 = CALENDAR_DATE ( 2019, 29, 5 ) ;
#296 = LINE ( 'NONE', #104, #215 ) ;
#297 = EDGE_CURVE ( 'NONE', #166, #94, #227, .T. ) ;
#298 = ADVANCED_FACE ( 'NONE', ( #280 ), #153, .F. ) ;
#299 = ORIENTED_EDGE ( 'NONE', *, *, #63, .F. ) ;
#300 = EDGE_CURVE ( 'NONE', #211, #70, #96, .T. ) ;
#301 = FACE_BOUND ( 'NONE', #95, .T. ) ;
#302 = EDGE_LOOP ( 'NONE', ( #252, #299, #228, #196 ) ) ;
#303 =( NAMED_UNIT ( * ) PLANE_ANGLE_UNIT ( ) SI_UNIT ( $, .RADIAN. ) );
#304 = DATE_AND_TIME ( #48, #24 ) ;
#305 = CARTESIAN_POINT ( 'NONE',  ( 0.0000000000000000000, 7.499999999999999112, 22.00000000000000000 ) ) ;
#306 = CARTESIAN_POINT ( 'NONE',  ( -15.00000000000000178, -7.500000000000000888, 0.0000000000000000000 ) ) ;
#307 = CIRCLE ( 'NONE', #91, 6.999999999999999112 ) ;
#308 = ORIENTED_EDGE ( 'NONE', *, *, #272, .F. ) ;
#309 = CARTESIAN_POINT ( 'NONE',  ( 0.0000000000000000000, 0.0000000000000000000, 0.0000000000000000000 ) ) ;
#310 = ORIENTED_EDGE ( 'NONE', *, *, #272, .T. ) ;
#311 = ORIENTED_EDGE ( 'NONE', *, *, #240, .T. ) ;
ENDSEC;
END-ISO-10303-21;
