ISO-10303-21;
HEADER;
FILE_DESCRIPTION (( 'STEP AP203' ),
    '1' );
FILE_NAME ('1.25.F06.STEP',
    '2019-05-29T11:57:32',
    ( '' ),
    ( '' ),
    'SwSTEP 2.0',
    'SolidWorks 2018',
    '' );
FILE_SCHEMA (( 'CONFIG_CONTROL_DESIGN' ));
ENDSEC;

DATA;
#1 = EDGE_CURVE ( 'NONE', #24, #30, #242, .T. ) ;
#2 = DATE_AND_TIME ( #176, #117 ) ;
#3 = DATE_AND_TIME ( #61, #67 ) ;
#4 = ORIENTED_EDGE ( 'NONE', *, *, #296, .T. ) ;
#5 = CARTESIAN_POINT ( 'NONE',  ( 58.75000000000000000, -1.040834085586084257E-14, 20.00000000000000000 ) ) ;
#6 = PERSON ( 'UNSPECIFIED', 'UNSPECIFIED', 'UNSPECIFIED', ('UNSPECIFIED'), ('UNSPECIFIED'), ('UNSPECIFIED') ) ;
#7 = AXIS2_PLACEMENT_3D ( 'NONE', #13, #37, #203 ) ;
#8 = DATE_AND_TIME ( #74, #199 ) ;
#9 = CALENDAR_DATE ( 2019, 29, 5 ) ;
#10 = PLANE ( 'NONE',  #52 ) ;
#11 = CIRCLE ( 'NONE', #300, 8.750000000000000000 ) ;
#12 = ORIENTED_EDGE ( 'NONE', *, *, #97, .T. ) ;
#13 = CARTESIAN_POINT ( 'NONE',  ( 50.00000000000000000, -1.040834085586084257E-14, 0.0000000000000000000 ) ) ;
#14 = CARTESIAN_POINT ( 'NONE',  ( 41.25000000000000000, -9.336774906606908442E-15, 20.00000000000000000 ) ) ;
#15 = VECTOR ( 'NONE', #307, 1000.000000000000000 ) ;
#16 = PERSON_AND_ORGANIZATION ( #6, #245 ) ;
#17 = PERSON_AND_ORGANIZATION_ROLE ( 'classification_officer' ) ;
#18 = APPROVAL_STATUS ( 'not_yet_approved' ) ;
#19 = LINE ( 'NONE', #299, #107 ) ;
#20 = DIRECTION ( 'NONE',  ( -0.0000000000000000000, -0.0000000000000000000, 1.000000000000000000 ) ) ;
#21 = VERTEX_POINT ( 'NONE', #276 ) ;
#22 = FACE_OUTER_BOUND ( 'NONE', #214, .T. ) ;
#23 = AXIS2_PLACEMENT_3D ( 'NONE', #103, #128, #156 ) ;
#24 = VERTEX_POINT ( 'NONE', #32 ) ;
#25 = ADVANCED_FACE ( 'NONE', ( #171 ), #198, .F. ) ;
#26 = LINE ( 'NONE', #39, #160 ) ;
#27 = DESIGN_CONTEXT ( 'detailed design', #112, 'design' ) ;
#28 = ADVANCED_FACE ( 'NONE', ( #22 ), #258, .F. ) ;
#29 = SHAPE_DEFINITION_REPRESENTATION ( #40, #158 ) ;
#30 = VERTEX_POINT ( 'NONE', #35 ) ;
#31 = DIRECTION ( 'NONE',  ( -0.0000000000000000000, -0.0000000000000000000, 1.000000000000000000 ) ) ;
#32 = CARTESIAN_POINT ( 'NONE',  ( 58.75000000000000000, -1.040834085586084257E-14, 0.0000000000000000000 ) ) ;
#33 = LINE ( 'NONE', #81, #212 ) ;
#34 = ORIENTED_EDGE ( 'NONE', *, *, #1, .F. ) ;
#35 = CARTESIAN_POINT ( 'NONE',  ( 58.75000000000000711, -1.040834085586084257E-14, 20.00000000000000000 ) ) ;
#36 = LINE ( 'NONE', #264, #138 ) ;
#37 = DIRECTION ( 'NONE',  ( -0.0000000000000000000, -0.0000000000000000000, 1.000000000000000000 ) ) ;
#38 = ORIENTED_EDGE ( 'NONE', *, *, #193, .T. ) ;
#39 = CARTESIAN_POINT ( 'NONE',  ( -70.00000000000000000, -20.00000000000001066, 20.00000000000000000 ) ) ;
#40 = PRODUCT_DEFINITION_SHAPE ( 'NONE', 'NONE',  #140 ) ;
#41 = DIRECTION ( 'NONE',  ( 0.0000000000000000000, 0.0000000000000000000, -1.000000000000000000 ) ) ;
#42 = DIRECTION ( 'NONE',  ( -0.0000000000000000000, -0.0000000000000000000, 1.000000000000000000 ) ) ;
#43 = ORIENTED_EDGE ( 'NONE', *, *, #1, .T. ) ;
#44 = PERSON_AND_ORGANIZATION_ROLE ( 'design_owner' ) ;
#45 = LINE ( 'NONE', #106, #224 ) ;
#46 =( LENGTH_UNIT ( ) NAMED_UNIT ( * ) SI_UNIT ( .MILLI., .METRE. ) );
#47 = ORIENTED_EDGE ( 'NONE', *, *, #283, .T. ) ;
#48 = APPROVAL_PERSON_ORGANIZATION ( #16, #201, #68 ) ;
#49 = VERTEX_POINT ( 'NONE', #101 ) ;
#50 = ADVANCED_FACE ( 'NONE', ( #94 ), #126, .F. ) ;
#51 = VERTEX_POINT ( 'NONE', #122 ) ;
#52 = AXIS2_PLACEMENT_3D ( 'NONE', #282, #105, #129 ) ;
#53 = DIRECTION ( 'NONE',  ( 0.0000000000000000000, -1.000000000000000000, 0.0000000000000000000 ) ) ;
#54 = CARTESIAN_POINT ( 'NONE',  ( -70.00000000000000000, 19.99999999999998934, 20.00000000000000000 ) ) ;
#55 = COORDINATED_UNIVERSAL_TIME_OFFSET ( 2, 0, .AHEAD. ) ;
#56 = VERTEX_POINT ( 'NONE', #202 ) ;
#57 = CARTESIAN_POINT ( 'NONE',  ( 70.00000000000000000, 19.99999999999998934, 20.00000000000000000 ) ) ;
#58 = MANIFOLD_SOLID_BREP ( 'M20 Tapped Hole1', #104 ) ;
#59 = CARTESIAN_POINT ( 'NONE',  ( -70.00000000000000000, 19.99999999999998934, 20.00000000000000000 ) ) ;
#60 = DIRECTION ( 'NONE',  ( 0.0000000000000000000, 1.000000000000000000, 0.0000000000000000000 ) ) ;
#61 = CALENDAR_DATE ( 2019, 29, 5 ) ;
#62 = CC_DESIGN_DATE_AND_TIME_ASSIGNMENT ( #3, #65, ( #281 ) ) ;
#63 = PLANE ( 'NONE',  #73 ) ;
#64 = EDGE_LOOP ( 'NONE', ( #286, #190 ) ) ;
#65 = DATE_TIME_ROLE ( 'classification_date' ) ;
#66 = APPROVAL_PERSON_ORGANIZATION ( #134, #172, #162 ) ;
#67 = LOCAL_TIME ( 14, 57, 32.00000000000000000, #195 ) ;
#68 = APPROVAL_ROLE ( '' ) ;
#69 = APPLICATION_PROTOCOL_DEFINITION ( 'international standard', 'config_control_design', 1994, #112 ) ;
#70 = MECHANICAL_CONTEXT ( 'NONE', #166, 'mechanical' ) ;
#71 = EDGE_CURVE ( 'NONE', #280, #51, #33, .T. ) ;
#72 = ORIENTED_EDGE ( 'NONE', *, *, #141, .T. ) ;
#73 = AXIS2_PLACEMENT_3D ( 'NONE', #238, #60, #154 ) ;
#74 = CALENDAR_DATE ( 2019, 29, 5 ) ;
#75 = ADVANCED_FACE ( 'NONE', ( #86 ), #142, .F. ) ;
#76 = FACE_OUTER_BOUND ( 'NONE', #302, .T. ) ;
#77 = ORIENTED_EDGE ( 'NONE', *, *, #175, .F. ) ;
#78 = DIRECTION ( 'NONE',  ( 1.000000000000000000, 0.0000000000000000000, 0.0000000000000000000 ) ) ;
#79 = EDGE_CURVE ( 'NONE', #247, #51, #19, .T. ) ;
#80 = LINE ( 'NONE', #301, #183 ) ;
#81 = CARTESIAN_POINT ( 'NONE',  ( 70.00000000000000000, -20.00000000000001066, 20.00000000000000000 ) ) ;
#82 = CARTESIAN_POINT ( 'NONE',  ( -70.00000000000000000, -20.00000000000001066, 0.0000000000000000000 ) ) ;
#83 = EDGE_CURVE ( 'NONE', #21, #24, #273, .T. ) ;
#84 = VERTEX_POINT ( 'NONE', #259 ) ;
#85 = CARTESIAN_POINT ( 'NONE',  ( 50.00000000000000000, -1.040834085586084257E-14, 20.00000000000000000 ) ) ;
#86 = FACE_OUTER_BOUND ( 'NONE', #244, .T. ) ;
#87 = DIRECTION ( 'NONE',  ( 0.0000000000000000000, 1.000000000000000000, 0.0000000000000000000 ) ) ;
#88 = PERSON_AND_ORGANIZATION ( #6, #245 ) ;
#89 = AXIS2_PLACEMENT_3D ( 'NONE', #85, #261, #239 ) ;
#90 = CARTESIAN_POINT ( 'NONE',  ( 0.0000000000000000000, 0.0000000000000000000, 0.0000000000000000000 ) ) ;
#91 = PERSON_AND_ORGANIZATION_ROLE ( 'design_supplier' ) ;
#92 = CIRCLE ( 'NONE', #7, 8.749999999999994671 ) ;
#93 = EDGE_CURVE ( 'NONE', #24, #21, #92, .T. ) ;
#94 = FACE_OUTER_BOUND ( 'NONE', #260, .T. ) ;
#95 = ORIENTED_EDGE ( 'NONE', *, *, #296, .F. ) ;
#96 = VERTEX_POINT ( 'NONE', #185 ) ;
#97 = EDGE_CURVE ( 'NONE', #49, #247, #289, .T. ) ;
#98 = DIRECTION ( 'NONE',  ( 1.000000000000000000, 0.0000000000000000000, 0.0000000000000000000 ) ) ;
#99 = ORIENTED_EDGE ( 'NONE', *, *, #79, .F. ) ;
#100 = AXIS2_PLACEMENT_3D ( 'NONE', #90, #218, #266 ) ;
#101 = CARTESIAN_POINT ( 'NONE',  ( -70.00000000000000000, -20.00000000000001066, 20.00000000000000000 ) ) ;
#102 = VECTOR ( 'NONE', #210, 1000.000000000000000 ) ;
#103 = CARTESIAN_POINT ( 'NONE',  ( 50.00000000000000000, -1.040834085586084257E-14, 20.00000000000000000 ) ) ;
#104 = CLOSED_SHELL ( 'NONE', ( #225, #50, #25, #28, #145, #144, #246, #75 ) ) ;
#105 = DIRECTION ( 'NONE',  ( 0.0000000000000000000, 0.0000000000000000000, -1.000000000000000000 ) ) ;
#106 = CARTESIAN_POINT ( 'NONE',  ( -70.00000000000000000, 19.99999999999998934, 0.0000000000000000000 ) ) ;
#107 = VECTOR ( 'NONE', #150, 1000.000000000000000 ) ;
#108 = DIRECTION ( 'NONE',  ( -1.000000000000000000, 0.0000000000000000000, -0.0000000000000000000 ) ) ;
#109 = PERSON_AND_ORGANIZATION ( #6, #245 ) ;
#110 = DIRECTION ( 'NONE',  ( 1.000000000000000000, 0.0000000000000000000, 0.0000000000000000000 ) ) ;
#111 = CALENDAR_DATE ( 2019, 29, 5 ) ;
#112 = APPLICATION_CONTEXT ( 'configuration controlled 3d designs of mechanical parts and assemblies' ) ;
#113 = ORIENTED_EDGE ( 'NONE', *, *, #93, .F. ) ;
#114 = CIRCLE ( 'NONE', #23, 8.750000000000000000 ) ;
#115 = EDGE_LOOP ( 'NONE', ( #240, #132, #38, #34 ) ) ;
#116 = CC_DESIGN_PERSON_AND_ORGANIZATION_ASSIGNMENT ( #309, #44, ( #254 ) ) ;
#117 = LOCAL_TIME ( 14, 57, 32.00000000000000000, #188 ) ;
#118 = LOCAL_TIME ( 14, 57, 32.00000000000000000, #189 ) ;
#119 = VERTEX_POINT ( 'NONE', #14 ) ;
#120 = PERSON_AND_ORGANIZATION ( #6, #245 ) ;
#121 = ORIENTED_EDGE ( 'NONE', *, *, #130, .T. ) ;
#122 = CARTESIAN_POINT ( 'NONE',  ( 70.00000000000000000, -20.00000000000001066, 0.0000000000000000000 ) ) ;
#123 = EDGE_CURVE ( 'NONE', #21, #119, #80, .T. ) ;
#124 = DIRECTION ( 'NONE',  ( -1.000000000000000000, 0.0000000000000000000, 0.0000000000000000000 ) ) ;
#125 = PERSON_AND_ORGANIZATION ( #6, #245 ) ;
#126 = PLANE ( 'NONE',  #192 ) ;
#127 = DIRECTION ( 'NONE',  ( -0.0000000000000000000, -1.000000000000000000, -0.0000000000000000000 ) ) ;
#128 = DIRECTION ( 'NONE',  ( -0.0000000000000000000, -0.0000000000000000000, 1.000000000000000000 ) ) ;
#129 = DIRECTION ( 'NONE',  ( -1.000000000000000000, 0.0000000000000000000, -0.0000000000000000000 ) ) ;
#130 = EDGE_CURVE ( 'NONE', #96, #247, #237, .T. ) ;
#131 = CARTESIAN_POINT ( 'NONE',  ( 70.00000000000000000, -20.00000000000001066, 20.00000000000000000 ) ) ;
#132 = ORIENTED_EDGE ( 'NONE', *, *, #123, .T. ) ;
#133 =( NAMED_UNIT ( * ) PLANE_ANGLE_UNIT ( ) SI_UNIT ( $, .RADIAN. ) );
#134 = PERSON_AND_ORGANIZATION ( #6, #245 ) ;
#135 = CC_DESIGN_PERSON_AND_ORGANIZATION_ASSIGNMENT ( #109, #310, ( #140 ) ) ;
#136 = DATE_AND_TIME ( #111, #118 ) ;
#137 = CARTESIAN_POINT ( 'NONE',  ( 70.00000000000000000, -20.00000000000001066, 20.00000000000000000 ) ) ;
#138 = VECTOR ( 'NONE', #235, 1000.000000000000000 ) ;
#139 = ORIENTED_EDGE ( 'NONE', *, *, #211, .T. ) ;
#140 = PRODUCT_DEFINITION ( 'UNKNOWN', '', #187, #27 ) ;
#141 = EDGE_CURVE ( 'NONE', #56, #96, #284, .T. ) ;
#142 = CYLINDRICAL_SURFACE ( 'NONE', #275, 8.749999999999994671 ) ;
#143 = ORIENTED_EDGE ( 'NONE', *, *, #79, .T. ) ;
#144 = ADVANCED_FACE ( 'NONE', ( #271, #221 ), #184, .F. ) ;
#145 = ADVANCED_FACE ( 'NONE', ( #149 ), #63, .F. ) ;
#146 = VECTOR ( 'NONE', #306, 1000.000000000000000 ) ;
#147 = ORIENTED_EDGE ( 'NONE', *, *, #182, .F. ) ;
#148 = AXIS2_PLACEMENT_3D ( 'NONE', #54, #53, #153 ) ;
#149 = FACE_OUTER_BOUND ( 'NONE', #269, .T. ) ;
#150 = DIRECTION ( 'NONE',  ( 1.000000000000000000, 0.0000000000000000000, 0.0000000000000000000 ) ) ;
#151 = CC_DESIGN_DATE_AND_TIME_ASSIGNMENT ( #8, #186, ( #140 ) ) ;
#152 = ORIENTED_EDGE ( 'NONE', *, *, #182, .T. ) ;
#153 = DIRECTION ( 'NONE',  ( 0.0000000000000000000, -0.0000000000000000000, -1.000000000000000000 ) ) ;
#154 = DIRECTION ( 'NONE',  ( 0.0000000000000000000, -0.0000000000000000000, 1.000000000000000000 ) ) ;
#155 = FACE_BOUND ( 'NONE', #64, .T. ) ;
#156 = DIRECTION ( 'NONE',  ( 1.000000000000000000, 0.0000000000000000000, 0.0000000000000000000 ) ) ;
#157 = ORIENTED_EDGE ( 'NONE', *, *, #270, .T. ) ;
#158 = ADVANCED_BREP_SHAPE_REPRESENTATION ( '1.25.F06', ( #58, #100 ), #159 ) ;
#159 =( GEOMETRIC_REPRESENTATION_CONTEXT ( 3 ) GLOBAL_UNCERTAINTY_ASSIGNED_CONTEXT ( ( #252 ) ) GLOBAL_UNIT_ASSIGNED_CONTEXT ( ( #46, #133, #217 ) ) REPRESENTATION_CONTEXT ( 'NONE', 'WORKASPACE' ) );
#160 = VECTOR ( 'NONE', #127, 1000.000000000000000 ) ;
#161 = EDGE_LOOP ( 'NONE', ( #47, #243, #308, #157 ) ) ;
#162 = APPROVAL_ROLE ( '' ) ;
#163 = APPROVAL_ROLE ( '' ) ;
#164 = VECTOR ( 'NONE', #181, 1000.000000000000000 ) ;
#165 = CARTESIAN_POINT ( 'NONE',  ( 70.00000000000000000, 19.99999999999998934, 0.0000000000000000000 ) ) ;
#166 = APPLICATION_CONTEXT ( 'configuration controlled 3d designs of mechanical parts and assemblies' ) ;
#167 = VECTOR ( 'NONE', #87, 1000.000000000000000 ) ;
#168 = EDGE_LOOP ( 'NONE', ( #139, #298, #253, #152 ) ) ;
#169 = VECTOR ( 'NONE', #173, 1000.000000000000000 ) ;
#170 = CARTESIAN_POINT ( 'NONE',  ( 70.00000000000000000, -20.00000000000001066, 20.00000000000000000 ) ) ;
#171 = FACE_OUTER_BOUND ( 'NONE', #168, .T. ) ;
#172 = APPROVAL ( #18, 'UNSPECIFIED' ) ;
#173 = DIRECTION ( 'NONE',  ( -0.0000000000000000000, -0.0000000000000000000, 1.000000000000000000 ) ) ;
#174 = ORIENTED_EDGE ( 'NONE', *, *, #130, .F. ) ;
#175 = EDGE_CURVE ( 'NONE', #51, #290, #204, .T. ) ;
#176 = CALENDAR_DATE ( 2019, 29, 5 ) ;
#177 = DIRECTION ( 'NONE',  ( 0.0000000000000000000, 0.0000000000000000000, -1.000000000000000000 ) ) ;
#178 = DIRECTION ( 'NONE',  ( 1.000000000000000000, 0.0000000000000000000, 0.0000000000000000000 ) ) ;
#179 = ORIENTED_EDGE ( 'NONE', *, *, #283, .F. ) ;
#180 = CARTESIAN_POINT ( 'NONE',  ( -70.00000000000000000, -20.00000000000001066, 20.00000000000000000 ) ) ;
#181 = DIRECTION ( 'NONE',  ( -0.0000000000000000000, -0.0000000000000000000, -1.000000000000000000 ) ) ;
#182 = EDGE_CURVE ( 'NONE', #84, #290, #194, .T. ) ;
#183 = VECTOR ( 'NONE', #42, 1000.000000000000000 ) ;
#184 = PLANE ( 'NONE',  #229 ) ;
#185 = CARTESIAN_POINT ( 'NONE',  ( -70.00000000000000000, 19.99999999999998934, 0.0000000000000000000 ) ) ;
#186 = DATE_TIME_ROLE ( 'creation_date' ) ;
#187 = PRODUCT_DEFINITION_FORMATION_WITH_SPECIFIED_SOURCE ( 'ANY', '', #254, .NOT_KNOWN. ) ;
#188 = COORDINATED_UNIVERSAL_TIME_OFFSET ( 2, 0, .AHEAD. ) ;
#189 = COORDINATED_UNIVERSAL_TIME_OFFSET ( 2, 0, .AHEAD. ) ;
#190 = ORIENTED_EDGE ( 'NONE', *, *, #83, .T. ) ;
#191 = ORIENTED_EDGE ( 'NONE', *, *, #123, .F. ) ;
#192 = AXIS2_PLACEMENT_3D ( 'NONE', #170, #124, #251 ) ;
#193 = EDGE_CURVE ( 'NONE', #119, #30, #114, .T. ) ;
#194 = LINE ( 'NONE', #57, #164 ) ;
#195 = COORDINATED_UNIVERSAL_TIME_OFFSET ( 2, 0, .AHEAD. ) ;
#196 = ORIENTED_EDGE ( 'NONE', *, *, #97, .F. ) ;
#197 = DIRECTION ( 'NONE',  ( -0.0000000000000000000, -0.0000000000000000000, -1.000000000000000000 ) ) ;
#198 = PLANE ( 'NONE',  #148 ) ;
#199 = LOCAL_TIME ( 14, 57, 32.00000000000000000, #55 ) ;
#200 = LOCAL_TIME ( 14, 57, 32.00000000000000000, #292 ) ;
#201 = APPROVAL ( #216, 'UNSPECIFIED' ) ;
#202 = CARTESIAN_POINT ( 'NONE',  ( -70.00000000000000000, 19.99999999999998934, 20.00000000000000000 ) ) ;
#203 = DIRECTION ( 'NONE',  ( 1.000000000000000000, 0.0000000000000000000, 0.0000000000000000000 ) ) ;
#204 = LINE ( 'NONE', #303, #167 ) ;
#205 = DIRECTION ( 'NONE',  ( -0.0000000000000000000, -0.0000000000000000000, 1.000000000000000000 ) ) ;
#206 = DIRECTION ( 'NONE',  ( 1.000000000000000000, 0.0000000000000000000, 0.0000000000000000000 ) ) ;
#207 = EDGE_LOOP ( 'NONE', ( #95, #311 ) ) ;
#208 = CARTESIAN_POINT ( 'NONE',  ( 50.00000000000000000, -1.040834085586084257E-14, 0.0000000000000000000 ) ) ;
#209 = AXIS2_PLACEMENT_3D ( 'NONE', #208, #205, #178 ) ;
#210 = DIRECTION ( 'NONE',  ( -0.0000000000000000000, -1.000000000000000000, -0.0000000000000000000 ) ) ;
#211 = EDGE_CURVE ( 'NONE', #290, #96, #45, .T. ) ;
#212 = VECTOR ( 'NONE', #197, 1000.000000000000000 ) ;
#213 = DIRECTION ( 'NONE',  ( 0.0000000000000000000, 1.000000000000000000, 0.0000000000000000000 ) ) ;
#214 = EDGE_LOOP ( 'NONE', ( #121, #196, #222, #72 ) ) ;
#215 = CARTESIAN_POINT ( 'NONE',  ( 50.00000000000000000, -1.040834085586084257E-14, 20.00000000000000000 ) ) ;
#216 = APPROVAL_STATUS ( 'not_yet_approved' ) ;
#217 =( NAMED_UNIT ( * ) SI_UNIT ( $, .STERADIAN. ) SOLID_ANGLE_UNIT ( ) );
#218 = DIRECTION ( 'NONE',  ( 0.0000000000000000000, 0.0000000000000000000, 1.000000000000000000 ) ) ;
#219 = ORIENTED_EDGE ( 'NONE', *, *, #71, .T. ) ;
#220 = APPROVAL ( #267, 'UNSPECIFIED' ) ;
#221 = FACE_OUTER_BOUND ( 'NONE', #161, .T. ) ;
#222 = ORIENTED_EDGE ( 'NONE', *, *, #250, .F. ) ;
#223 = AXIS2_PLACEMENT_3D ( 'NONE', #232, #78, #177 ) ;
#224 = VECTOR ( 'NONE', #277, 1000.000000000000000 ) ;
#225 = ADVANCED_FACE ( 'NONE', ( #291 ), #233, .F. ) ;
#226 = ORIENTED_EDGE ( 'NONE', *, *, #270, .F. ) ;
#227 = VECTOR ( 'NONE', #213, 1000.000000000000000 ) ;
#228 = DATE_AND_TIME ( #9, #200 ) ;
#229 = AXIS2_PLACEMENT_3D ( 'NONE', #279, #41, #108 ) ;
#230 = EDGE_CURVE ( 'NONE', #84, #56, #36, .T. ) ;
#231 = CARTESIAN_POINT ( 'NONE',  ( 50.00000000000000000, -1.040834085586084257E-14, 20.00000000000000000 ) ) ;
#232 = CARTESIAN_POINT ( 'NONE',  ( -70.00000000000000000, -20.00000000000001066, 20.00000000000000000 ) ) ;
#233 = CYLINDRICAL_SURFACE ( 'NONE', #89, 8.749999999999994671 ) ;
#234 = ORIENTED_EDGE ( 'NONE', *, *, #211, .F. ) ;
#235 = DIRECTION ( 'NONE',  ( -1.000000000000000000, -0.0000000000000000000, -0.0000000000000000000 ) ) ;
#236 = CC_DESIGN_PERSON_AND_ORGANIZATION_ASSIGNMENT ( #125, #17, ( #281 ) ) ;
#237 = LINE ( 'NONE', #262, #102 ) ;
#238 = CARTESIAN_POINT ( 'NONE',  ( -70.00000000000000000, -20.00000000000001066, 20.00000000000000000 ) ) ;
#239 = DIRECTION ( 'NONE',  ( 1.000000000000000000, 0.0000000000000000000, 0.0000000000000000000 ) ) ;
#240 = ORIENTED_EDGE ( 'NONE', *, *, #83, .F. ) ;
#241 = CC_DESIGN_APPROVAL ( #201, ( #187 ) ) ;
#242 = LINE ( 'NONE', #5, #169 ) ;
#243 = ORIENTED_EDGE ( 'NONE', *, *, #230, .T. ) ;
#244 = EDGE_LOOP ( 'NONE', ( #191, #113, #43, #4 ) ) ;
#245 = ORGANIZATION ( 'UNSPECIFIED', 'UNSPECIFIED', '' ) ;
#246 = ADVANCED_FACE ( 'NONE', ( #155, #76 ), #10, .T. ) ;
#247 = VERTEX_POINT ( 'NONE', #82 ) ;
#248 = CC_DESIGN_SECURITY_CLASSIFICATION ( #281, ( #187 ) ) ;
#249 = PERSON_AND_ORGANIZATION ( #6, #245 ) ;
#250 = EDGE_CURVE ( 'NONE', #56, #49, #26, .T. ) ;
#251 = DIRECTION ( 'NONE',  ( 0.0000000000000000000, 0.0000000000000000000, 1.000000000000000000 ) ) ;
#252 = UNCERTAINTY_MEASURE_WITH_UNIT (LENGTH_MEASURE( 1.000000000000000082E-05 ), #46, 'distance_accuracy_value', 'NONE');
#253 = ORIENTED_EDGE ( 'NONE', *, *, #230, .F. ) ;
#254 = PRODUCT ( '1.25.F06', '1.25.F06', '', ( #70 ) ) ;
#255 = APPROVAL_DATE_TIME ( #2, #172 ) ;
#256 = APPROVAL_PERSON_ORGANIZATION ( #249, #220, #163 ) ;
#257 = CC_DESIGN_PERSON_AND_ORGANIZATION_ASSIGNMENT ( #88, #288, ( #187 ) ) ;
#258 = PLANE ( 'NONE',  #223 ) ;
#259 = CARTESIAN_POINT ( 'NONE',  ( 70.00000000000000000, 19.99999999999998934, 20.00000000000000000 ) ) ;
#260 = EDGE_LOOP ( 'NONE', ( #293, #147, #179, #219 ) ) ;
#261 = DIRECTION ( 'NONE',  ( -0.0000000000000000000, -0.0000000000000000000, 1.000000000000000000 ) ) ;
#262 = CARTESIAN_POINT ( 'NONE',  ( -70.00000000000000000, -20.00000000000001066, 0.0000000000000000000 ) ) ;
#263 = APPROVAL_DATE_TIME ( #228, #201 ) ;
#264 = CARTESIAN_POINT ( 'NONE',  ( -70.00000000000000000, 19.99999999999998934, 20.00000000000000000 ) ) ;
#265 = CC_DESIGN_APPROVAL ( #172, ( #140 ) ) ;
#266 = DIRECTION ( 'NONE',  ( 1.000000000000000000, 0.0000000000000000000, 0.0000000000000000000 ) ) ;
#267 = APPROVAL_STATUS ( 'not_yet_approved' ) ;
#268 = PRODUCT_RELATED_PRODUCT_CATEGORY ( 'detail', '', ( #254 ) ) ;
#269 = EDGE_LOOP ( 'NONE', ( #143, #294, #226, #12 ) ) ;
#270 = EDGE_CURVE ( 'NONE', #49, #280, #278, .T. ) ;
#271 = FACE_BOUND ( 'NONE', #207, .T. ) ;
#272 = CC_DESIGN_PERSON_AND_ORGANIZATION_ASSIGNMENT ( #120, #91, ( #187 ) ) ;
#273 = CIRCLE ( 'NONE', #209, 8.749999999999994671 ) ;
#274 = APPROVAL_DATE_TIME ( #136, #220 ) ;
#275 = AXIS2_PLACEMENT_3D ( 'NONE', #231, #31, #98 ) ;
#276 = CARTESIAN_POINT ( 'NONE',  ( 41.25000000000000711, -9.336774906606910020E-15, 0.0000000000000000000 ) ) ;
#277 = DIRECTION ( 'NONE',  ( -1.000000000000000000, -0.0000000000000000000, -0.0000000000000000000 ) ) ;
#278 = LINE ( 'NONE', #304, #305 ) ;
#279 = CARTESIAN_POINT ( 'NONE',  ( 0.0000000000000000000, 0.0000000000000000000, 20.00000000000000000 ) ) ;
#280 = VERTEX_POINT ( 'NONE', #131 ) ;
#281 = SECURITY_CLASSIFICATION ( '', '', #285 ) ;
#282 = CARTESIAN_POINT ( 'NONE',  ( 0.0000000000000000000, 0.0000000000000000000, 0.0000000000000000000 ) ) ;
#283 = EDGE_CURVE ( 'NONE', #280, #84, #297, .T. ) ;
#284 = LINE ( 'NONE', #59, #146 ) ;
#285 = SECURITY_CLASSIFICATION_LEVEL ( 'unclassified' ) ;
#286 = ORIENTED_EDGE ( 'NONE', *, *, #93, .T. ) ;
#287 = APPLICATION_PROTOCOL_DEFINITION ( 'international standard', 'config_control_design', 1994, #166 ) ;
#288 = PERSON_AND_ORGANIZATION_ROLE ( 'creator' ) ;
#289 = LINE ( 'NONE', #180, #15 ) ;
#290 = VERTEX_POINT ( 'NONE', #165 ) ;
#291 = FACE_OUTER_BOUND ( 'NONE', #115, .T. ) ;
#292 = COORDINATED_UNIVERSAL_TIME_OFFSET ( 2, 0, .AHEAD. ) ;
#293 = ORIENTED_EDGE ( 'NONE', *, *, #175, .T. ) ;
#294 = ORIENTED_EDGE ( 'NONE', *, *, #71, .F. ) ;
#295 = CC_DESIGN_APPROVAL ( #220, ( #281 ) ) ;
#296 = EDGE_CURVE ( 'NONE', #30, #119, #11, .T. ) ;
#297 = LINE ( 'NONE', #137, #227 ) ;
#298 = ORIENTED_EDGE ( 'NONE', *, *, #141, .F. ) ;
#299 = CARTESIAN_POINT ( 'NONE',  ( -70.00000000000000000, -20.00000000000001066, 0.0000000000000000000 ) ) ;
#300 = AXIS2_PLACEMENT_3D ( 'NONE', #215, #20, #110 ) ;
#301 = CARTESIAN_POINT ( 'NONE',  ( 41.25000000000000711, -9.336774906606910020E-15, 20.00000000000000000 ) ) ;
#302 = EDGE_LOOP ( 'NONE', ( #77, #99, #174, #234 ) ) ;
#303 = CARTESIAN_POINT ( 'NONE',  ( 70.00000000000000000, -20.00000000000001066, 0.0000000000000000000 ) ) ;
#304 = CARTESIAN_POINT ( 'NONE',  ( -70.00000000000000000, -20.00000000000001066, 20.00000000000000000 ) ) ;
#305 = VECTOR ( 'NONE', #206, 1000.000000000000000 ) ;
#306 = DIRECTION ( 'NONE',  ( -0.0000000000000000000, -0.0000000000000000000, -1.000000000000000000 ) ) ;
#307 = DIRECTION ( 'NONE',  ( -0.0000000000000000000, -0.0000000000000000000, -1.000000000000000000 ) ) ;
#308 = ORIENTED_EDGE ( 'NONE', *, *, #250, .T. ) ;
#309 = PERSON_AND_ORGANIZATION ( #6, #245 ) ;
#310 = PERSON_AND_ORGANIZATION_ROLE ( 'creator' ) ;
#311 = ORIENTED_EDGE ( 'NONE', *, *, #193, .F. ) ;
ENDSEC;
END-ISO-10303-21;
